  0
SECTION
  2
HEADER
  9
$ACADVER
  1
AC1015
  9
$ACADMAINTVER
 70
     6
  9
$DWGCODEPAGE
  3
ANSI_1254
  9
$INSBASE
 10
0.0
 20
0.0
 30
0.0
  9
$EXTMIN
 10
0.0
 20
0.0
 30
0.0
  9
$EXTMAX
 10
279.4
 20
215.9
 30
0.0
  9
$LIMMIN
 10
0.0
 20
0.0
  9
$LIMMAX
 10
279.4
 20
215.9
  9
$ORTHOMODE
 70
     0
  9
$REGENMODE
 70
     1
  9
$FILLMODE
 70
     1
  9
$QTEXTMODE
 70
     0
  9
$MIRRTEXT
 70
     1
  9
$LTSCALE
 40
1.0
  9
$ATTMODE
 70
     1
  9
$TEXTSIZE
 40
3.5
  9
$TRACEWID
 40
1.0
  9
$TEXTSTYLE
  7
Standard
  9
$CLAYER
  8
0
  9
$CELTYPE
  6
ByLayer
  9
$CECOLOR
 62
   256
  9
$CELTSCALE
 40
1.0
  9
$DISPSILH
 70
     0
  9
$DIMSCALE
 40
1.0
  9
$DIMASZ
 40
3.5
  9
$DIMEXO
 40
1.0
  9
$DIMDLI
 40
3.75
  9
$DIMRND
 40
0.0
  9
$DIMDLE
 40
0.0
  9
$DIMEXE
 40
1.0
  9
$DIMTP
 40
0.0
  9
$DIMTM
 40
0.0
  9
$DIMTXT
 40
3.5
  9
$DIMCEN
 40
2.5
  9
$DIMTSZ
 40
0.0
  9
$DIMTOL
 70
     0
  9
$DIMLIM
 70
     0
  9
$DIMTIH
 70
     1
  9
$DIMTOH
 70
     1
  9
$DIMSE1
 70
     0
  9
$DIMSE2
 70
     0
  9
$DIMTAD
 70
     1
  9
$DIMZIN
 70
     0
  9
$DIMBLK
  1

  9
$DIMASO
 70
     1
  9
$DIMSHO
 70
     1
  9
$DIMPOST
  1

  9
$DIMAPOST
  1

  9
$DIMALT
 70
     0
  9
$DIMALTD
 70
     3
  9
$DIMALTF
 40
0.0393700787
  9
$DIMLFAC
 40
1.0
  9
$DIMTOFL
 70
     1
  9
$DIMTVP
 40
0.0
  9
$DIMTIX
 70
     0
  9
$DIMSOXD
 70
     0
  9
$DIMSAH
 70
     0
  9
$DIMBLK1
  1

  9
$DIMBLK2
  1

  9
$DIMSTYLE
  2
ISO-25
  9
$DIMCLRD
 70
     0
  9
$DIMCLRE
 70
     0
  9
$DIMCLRT
 70
     0
  9
$DIMTFAC
 40
1.0
  9
$DIMGAP
 40
1.524
  9
$DIMJUST
 70
     0
  9
$DIMSD1
 70
     0
  9
$DIMSD2
 70
     0
  9
$DIMTOLJ
 70
     0
  9
$DIMTZIN
 70
     0
  9
$DIMALTZ
 70
     0
  9
$DIMALTTZ
 70
     0
  9
$DIMUPT
 70
     0
  9
$DIMDEC
 70
     2
  9
$DIMTDEC
 70
     2
  9
$DIMALTU
 70
     2
  9
$DIMALTTD
 70
     3
  9
$DIMTXSTY
  7
Standard
  9
$DIMAUNIT
 70
     0
  9
$DIMADEC
 70
     2
  9
$DIMALTRND
 40
0.0
  9
$DIMAZIN
 70
     0
  9
$DIMDSEP
 70
    44
  9
$DIMATFIT
 70
     3
  9
$DIMFRAC
 70
     0
  9
$DIMLDRBLK
  1

  9
$DIMLUNIT
 70
     2
  9
$DIMLWD
 70
    -2
  9
$DIMLWE
 70
    -2
  9
$DIMTMOVE
 70
     0
  9
$LUNITS
 70
     2
  9
$LUPREC
 70
     2
  9
$SKETCHINC
 40
1.0
  9
$FILLETRAD
 40
10.0
  9
$AUNITS
 70
     0
  9
$AUPREC
 70
     2
  9
$MENU
  1
.
  9
$ELEVATION
 40
0.0
  9
$PELEVATION
 40
0.0
  9
$THICKNESS
 40
0.0
  9
$LIMCHECK
 70
     0
  9
$CHAMFERA
 40
0.0
  9
$CHAMFERB
 40
0.0
  9
$CHAMFERC
 40
0.0
  9
$CHAMFERD
 40
0.0
  9
$SKPOLY
 70
     0
  9
$TDCREATE
 40
2459935.709185741
  9
$TDUCREATE
 40
2459935.584185741
  9
$TDUPDATE
 40
2459935.709185926
  9
$TDUUPDATE
 40
2459935.584185926
  9
$TDINDWG
 40
0.0000000116
  9
$TDUSRTIMER
 40
0.0000000116
  9
$USRTIMER
 70
     1
  9
$ANGBASE
 50
0.0
  9
$ANGDIR
 70
     0
  9
$PDMODE
 70
     0
  9
$PDSIZE
 40
-1.0
  9
$PLINEWID
 40
0.0
  9
$SPLFRAME
 70
     0
  9
$SPLINETYPE
 70
     6
  9
$SPLINESEGS
 70
     8
  9
$HANDSEED
  5
14D
  9
$SURFTAB1
 70
     6
  9
$SURFTAB2
 70
     6
  9
$SURFTYPE
 70
     6
  9
$SURFU
 70
     6
  9
$SURFV
 70
     6
  9
$UCSBASE
  2

  9
$UCSNAME
  2

  9
$UCSORG
 10
0.0
 20
0.0
 30
0.0
  9
$UCSXDIR
 10
1.0
 20
0.0
 30
0.0
  9
$UCSYDIR
 10
0.0
 20
1.0
 30
0.0
  9
$UCSORTHOREF
  2

  9
$UCSORTHOVIEW
 70
     0
  9
$UCSORGTOP
 10
0.0
 20
0.0
 30
0.0
  9
$UCSORGBOTTOM
 10
0.0
 20
0.0
 30
0.0
  9
$UCSORGLEFT
 10
0.0
 20
0.0
 30
0.0
  9
$UCSORGRIGHT
 10
0.0
 20
0.0
 30
0.0
  9
$UCSORGFRONT
 10
0.0
 20
0.0
 30
0.0
  9
$UCSORGBACK
 10
0.0
 20
0.0
 30
0.0
  9
$PUCSBASE
  2

  9
$PUCSNAME
  2

  9
$PUCSORG
 10
0.0
 20
0.0
 30
0.0
  9
$PUCSXDIR
 10
1.0
 20
0.0
 30
0.0
  9
$PUCSYDIR
 10
0.0
 20
1.0
 30
0.0
  9
$PUCSORTHOREF
  2

  9
$PUCSORTHOVIEW
 70
     0
  9
$PUCSORGTOP
 10
0.0
 20
0.0
 30
0.0
  9
$PUCSORGBOTTOM
 10
0.0
 20
0.0
 30
0.0
  9
$PUCSORGLEFT
 10
0.0
 20
0.0
 30
0.0
  9
$PUCSORGRIGHT
 10
0.0
 20
0.0
 30
0.0
  9
$PUCSORGFRONT
 10
0.0
 20
0.0
 30
0.0
  9
$PUCSORGBACK
 10
0.0
 20
0.0
 30
0.0
  9
$USERI1
 70
     0
  9
$USERI2
 70
     0
  9
$USERI3
 70
     0
  9
$USERI4
 70
     0
  9
$USERI5
 70
     0
  9
$USERR1
 40
0.0
  9
$USERR2
 40
0.0
  9
$USERR3
 40
0.0
  9
$USERR4
 40
0.0
  9
$USERR5
 40
0.0
  9
$WORLDVIEW
 70
     1
  9
$SHADEDGE
 70
     3
  9
$SHADEDIF
 70
    70
  9
$TILEMODE
 70
     1
  9
$MAXACTVP
 70
    64
  9
$PINSBASE
 10
0.0
 20
0.0
 30
0.0
  9
$PLIMCHECK
 70
     0
  9
$PEXTMIN
 10
1.0000000000E+20
 20
1.0000000000E+20
 30
1.0000000000E+20
  9
$PEXTMAX
 10
-1.0000000000E+20
 20
-1.0000000000E+20
 30
-1.0000000000E+20
  9
$PLIMMIN
 10
0.0
 20
0.0
  9
$PLIMMAX
 10
420.0
 20
297.0
  9
$UNITMODE
 70
     0
  9
$VISRETAIN
 70
     1
  9
$PLINEGEN
 70
     0
  9
$PSLTSCALE
 70
     1
  9
$TREEDEPTH
 70
  3020
  9
$CMLSTYLE
  2
Standard
  9
$CMLJUST
 70
     0
  9
$CMLSCALE
 40
20.0
  9
$PROXYGRAPHICS
 70
     1
  9
$MEASUREMENT
 70
     1
  9
$CELWEIGHT
370
    -1
  9
$ENDCAPS
280
     0
  9
$JOINSTYLE
280
     0
  9
$LWDISPLAY
290
     1
  9
$INSUNITS
 70
     4
  9
$HYPERLINKBASE
  1

  9
$STYLESHEET
  1

  9
$XEDIT
290
     1
  9
$CEPSNTYPE
380
     0
  9
$PSTYLEMODE
290
     1
  9
$FINGERPRINTGUID
  2
{1c7d9e33-00f8-4c79-9f9c-8ccc47b2b42a}
  9
$VERSIONGUID
  2
{FAEB1C32-E019-11D5-929B-00C0DF256EC4}
  9
$EXTNAMES
290
     1
  9
$PSVPSCALE
 40
0.0
  9
$OLESTARTUP
290
     0
  0
ENDSEC
  0
SECTION
  2
CLASSES
  0
CLASS
  1
ACDBDICTIONARYWDFLT
  2
AcDbDictionaryWithDefault
  3
ObjectDBX Classes
 90
        0
280
     0
281
     0
  0
CLASS
  1
VISUALSTYLE
  2
AcDbVisualStyle
  3
ObjectDBX Classes
 90
     4095
280
     0
281
     0
  0
CLASS
  1
MATERIAL
  2
AcDbMaterial
  3
ObjectDBX Classes
 90
     1153
280
     0
281
     0
  0
CLASS
  1
SCALE
  2
AcDbScale
  3
ObjectDBX Classes
 90
     1153
280
     0
281
     0
  0
CLASS
  1
TABLESTYLE
  2
AcDbTableStyle
  3
ObjectDBX Classes
 90
     4095
280
     0
281
     0
  0
CLASS
  1
MLEADERSTYLE
  2
AcDbMLeaderStyle
  3
ACDB_MLEADERSTYLE_CLASS
 90
     4095
280
     0
281
     0
  0
CLASS
  1
SUN
  2
AcDbSun
  3
SCENEOE
 90
     1153
280
     0
281
     0
  0
CLASS
  1
ACDBPLACEHOLDER
  2
AcDbPlaceHolder
  3
ObjectDBX Classes
 90
        0
280
     0
281
     0
  0
CLASS
  1
LAYOUT
  2
AcDbLayout
  3
ObjectDBX Classes
 90
        0
280
     0
281
     0
  0
ENDSEC
  0
SECTION
  2
TABLES
  0
TABLE
  2
VPORT
  5
8
330
0
100
AcDbSymbolTable
 70
     1
  0
VPORT
  5
29
330
8
100
AcDbSymbolTableRecord
100
AcDbViewportTableRecord
  2
*Active
 70
     0
 10
0.0
 20
0.0
 11
1.0
 21
1.0
 12
139.7
 22
107.95
 13
0.0
 23
0.0
 14
10.0
 24
10.0
 15
10.0
 25
10.0
 16
0.0
 26
0.0
 36
1.0
 17
0.0
 27
0.0
 37
0.0
 40
215.9
 41
1.2941176471
 42
50.0
 43
0.0
 44
0.0
 50
0.0
 51
0.0
 71
     0
 72
  2000
 73
     1
 74
     3
 75
     0
 76
     0
 77
     0
 78
     0
281
     0
 65
     1
110
0.0
120
0.0
130
0.0
111
1.0
121
0.0
131
0.0
112
0.0
122
1.0
132
0.0
 79
     0
146
0.0
  0
ENDTAB
  0
TABLE
  2
LTYPE
  5
5
330
0
100
AcDbSymbolTable
 70
     6
  0
LTYPE
  5
14
330
5
100
AcDbSymbolTableRecord
100
AcDbLinetypeTableRecord
  2
ByBlock
 70
     0
  3

 72
    65
 73
     0
 40
0.0
  0
LTYPE
  5
15
330
5
100
AcDbSymbolTableRecord
100
AcDbLinetypeTableRecord
  2
ByLayer
 70
     0
  3

 72
    65
 73
     0
 40
0.0
  0
LTYPE
  5
16
330
5
100
AcDbSymbolTableRecord
100
AcDbLinetypeTableRecord
  2
Continuous
 70
     0
  3
Solid line
 72
    65
 73
     0
 40
0.0
  0
LTYPE
  5
6E
330
5
100
AcDbSymbolTableRecord
100
AcDbLinetypeTableRecord
  2
HIDDEN
 70
     0
  3
Hidden __ __ __ __ __ __ __ __ __ __ __ __ __ __
 72
    65
 73
     2
 40
1.905
 49
1.27
 74
     0
 49
-0.635
 74
     0
  0
LTYPE
  5
6F
330
5
100
AcDbSymbolTableRecord
100
AcDbLinetypeTableRecord
  2
PHANTOM
 70
     0
  3
Phantom ______  __  __  ______  __  __  ______
 72
    65
 73
     6
 40
12.7
 49
6.35
 74
     0
 49
-1.27
 74
     0
 49
1.27
 74
     0
 49
-1.27
 74
     0
 49
1.27
 74
     0
 49
-1.27
 74
     0
  0
LTYPE
  5
70
330
5
100
AcDbSymbolTableRecord
100
AcDbLinetypeTableRecord
  2
CENTER
 70
     0
  3
Center ____ _ ____ _ ____ _ ____ _ ____ _ ____
 72
    65
 73
     4
 40
10.16
 49
6.35
 74
     0
 49
-1.27
 74
     0
 49
1.27
 74
     0
 49
-1.27
 74
     0
  0
LTYPE
  5
71
330
5
100
AcDbSymbolTableRecord
100
AcDbLinetypeTableRecord
  2
CENTERX2
 70
     0
  3
Center (2x) ________  __  ________  __  _____
 72
    65
 73
     4
 40
20.32
 49
12.7
 74
     0
 49
-2.54
 74
     0
 49
2.54
 74
     0
 49
-2.54
 74
     0
  0
LTYPE
  5
72
330
5
100
AcDbSymbolTableRecord
100
AcDbLinetypeTableRecord
  2
DOT2
 70
     0
  3
Dot (.5x) ........................................
 72
    65
 73
     2
 40
0.635
 49
0.0
 74
     0
 49
-0.635
 74
     0
  0
ENDTAB
  0
TABLE
  2
LAYER
  5
2
330
0
100
AcDbSymbolTable
 70
    17
  0
LAYER
  5
10
330
2
100
AcDbSymbolTableRecord
100
AcDbLayerTableRecord
  2
0
 70
     0
 62
     7
  6
Continuous
370
    -3
390
F
  0
LAYER
  5
73
330
2
100
AcDbSymbolTableRecord
100
AcDbLayerTableRecord
  2
FORMAT
 70
     0
 62
     7
  6
Continuous
370
    -3
390
F
  0
LAYER
  5
74
330
2
100
AcDbSymbolTableRecord
100
AcDbLayerTableRecord
  2
YARDIMCI_GEOMETRI
 70
     0
 62
    -6
  6
Continuous
290
     0
370
    -3
390
F
  0
LAYER
  5
75
330
2
100
AcDbSymbolTableRecord
100
AcDbLayerTableRecord
  2
SAYFA_CERCEVESI
 70
     0
 62
     7
  6
Continuous
370
    25
390
F
  0
LAYER
  5
76
330
2
100
AcDbSymbolTableRecord
100
AcDbLayerTableRecord
  2
ANTET
 70
     0
 62
     7
  6
Continuous
370
    -3
390
F
  0
LAYER
  5
77
330
2
100
AcDbSymbolTableRecord
100
AcDbLayerTableRecord
  2
OLCU
 70
     0
 62
   150
  6
Continuous
370
    -3
390
F
  0
LAYER
  5
78
330
2
100
AcDbSymbolTableRecord
100
AcDbLayerTableRecord
  2
METIN
 70
     0
 62
    96
  6
Continuous
370
    -3
390
F
  0
LAYER
  5
79
330
2
100
AcDbSymbolTableRecord
100
AcDbLayerTableRecord
  2
BALON
 70
     0
 62
     5
  6
Continuous
370
    -3
390
F
  0
LAYER
  5
7A
330
2
100
AcDbSymbolTableRecord
100
AcDbLayerTableRecord
  2
VURGU
 70
     0
 62
     7
  6
Continuous
370
    -3
390
F
  0
LAYER
  5
7B
330
2
100
AcDbSymbolTableRecord
100
AcDbLayerTableRecord
  2
SILIK
 70
     0
 62
     7
  6
Continuous
370
    -3
390
F
  0
LAYER
  5
7C
330
2
100
AcDbSymbolTableRecord
100
AcDbLayerTableRecord
  2
MODEL
 70
     0
 62
     7
  6
Continuous
370
    -3
390
F
  0
LAYER
  5
7D
330
2
100
AcDbSymbolTableRecord
100
AcDbLayerTableRecord
  2
DETAYLANDıRMA
 70
     0
 62
   190
  6
Continuous
370
    -3
390
F
  0
LAYER
  5
7E
330
2
100
AcDbSymbolTableRecord
100
AcDbLayerTableRecord
  2
TOLERANS
 70
     0
 62
   230
  6
Continuous
370
    -3
390
F
  0
LAYER
  5
7F
330
2
100
AcDbSymbolTableRecord
100
AcDbLayerTableRecord
  2
MERKEZ_CIZGILERI
 70
     0
 62
    30
  6
Continuous
370
    -3
390
F
  0
LAYER
  5
80
330
2
100
AcDbSymbolTableRecord
100
AcDbLayerTableRecord
  2
KESIT-DETAY_CIZGILERI
 70
     0
 62
     7
  6
Continuous
370
    -3
390
F
  0
LAYER
  5
81
330
2
100
AcDbSymbolTableRecord
100
AcDbLayerTableRecord
  2
\U+041E\U+0421\U+0415\U+0412\U+042B\U+0415
 70
     0
 62
     7
  6
Continuous
370
    -3
390
F
  0
LAYER
  5
82
330
2
100
AcDbSymbolTableRecord
100
AcDbLayerTableRecord
  2
\U+0412\U+041E\U+0414\U+042F\U+041D\U+042B\U+0415_\U+0417\U+041D\U+0410\U+041A\U+0418
 70
     0
 62
    11
  6
Continuous
370
    -3
390
F
  0
ENDTAB
  0
TABLE
  2
STYLE
  5
3
330
0
100
AcDbSymbolTable
 70
     1
  0
STYLE
  5
11
330
3
100
AcDbSymbolTableRecord
100
AcDbTextStyleTableRecord
  2
Standard
 70
     0
 40
0.0
 41
1.0
 50
0.0
 71
     0
 42
3.5
  3
txt
  4

  0
ENDTAB
  0
TABLE
  2
VIEW
  5
6
330
0
100
AcDbSymbolTable
 70
     0
  0
ENDTAB
  0
TABLE
  2
UCS
  5
7
330
0
100
AcDbSymbolTable
 70
     0
  0
ENDTAB
  0
TABLE
  2
APPID
  5
9
330
0
100
AcDbSymbolTable
 70
     1
  0
APPID
  5
12
330
9
100
AcDbSymbolTableRecord
100
AcDbRegAppTableRecord
  2
ACAD
 70
     0
  0
ENDTAB
  0
TABLE
  2
DIMSTYLE
  5
A
330
0
100
AcDbSymbolTable
 70
     1
100
AcDbDimStyleTable
  0
DIMSTYLE
105
27
330
A
100
AcDbSymbolTableRecord
100
AcDbDimStyleTableRecord
  2
ISO-25
 70
     0
 41
2.5
 42
0.625
 43
3.75
 44
1.25
 73
     0
 74
     0
 77
     1
 78
     8
140
2.5
141
2.5
143
0.0393700787
147
0.625
171
     3
172
     1
178
     0
271
     2
272
     2
274
     3
278
    44
283
     0
284
     8
340
11
  0
ENDTAB
  0
TABLE
  2
BLOCK_RECORD
  5
1
330
0
100
AcDbSymbolTable
 70
     2
  0
BLOCK_RECORD
  5
1F
330
1
100
AcDbSymbolTableRecord
100
AcDbBlockTableRecord
  2
*Model_Space
340
22
  0
BLOCK_RECORD
  5
1B
330
1
100
AcDbSymbolTableRecord
100
AcDbBlockTableRecord
  2
*Paper_Space
340
1E
  0
BLOCK_RECORD
  5
23
330
1
100
AcDbSymbolTableRecord
100
AcDbBlockTableRecord
  2
*Paper_Space0
340
26
  0
BLOCK_RECORD
  5
8C
330
1
100
AcDbSymbolTableRecord
100
AcDbBlockTableRecord
  2
SW_CENTERMARKSYMBOL_0
340
0
102
{BLKREFS
331
97
102
}
  0
ENDTAB
  0
ENDSEC
  0
SECTION
  2
BLOCKS
  0
BLOCK
  5
20
330
1F
100
AcDbEntity
  8
0
100
AcDbBlockBegin
  2
*Model_Space
 70
     0
 10
0.0
 20
0.0
 30
0.0
  3
*Model_Space
  1

  0
ENDBLK
  5
21
330
1F
100
AcDbEntity
  8
0
100
AcDbBlockEnd
  0
BLOCK
  5
1C
330
1B
100
AcDbEntity
 67
     1
  8
0
100
AcDbBlockBegin
  2
*Paper_Space
 70
     0
 10
0.0
 20
0.0
 30
0.0
  3
*Paper_Space
  1

  0
ENDBLK
  5
1D
330
1B
100
AcDbEntity
 67
     1
  8
0
100
AcDbBlockEnd
  0
BLOCK
  5
24
330
23
100
AcDbEntity
  8
0
100
AcDbBlockBegin
  2
*Paper_Space0
 70
     0
 10
0.0
 20
0.0
 30
0.0
  3
*Paper_Space0
  1

  0
ENDBLK
  5
25
330
23
100
AcDbEntity
  8
0
100
AcDbBlockEnd
  0
BLOCK
  5
8D
330
8C
100
AcDbEntity
  8
0
100
AcDbBlockBegin
  2
SW_CENTERMARKSYMBOL_0
 70
     0
 10
0.0
 20
0.0
 30
0.0
  3
SW_CENTERMARKSYMBOL_0
  1

  0
LINE
  5
8F
330
8C
100
AcDbEntity
  8
FORMAT
 62
     0
100
AcDbLine
 10
0.0
 20
0.0
 30
0.0
 11
0.0
 21
2.5
 31
0.0
  0
LINE
  5
90
330
8C
100
AcDbEntity
  8
FORMAT
 62
     0
100
AcDbLine
 10
0.0
 20
0.0
 30
0.0
 11
-2.5
 21
0.0
 31
0.0
  0
LINE
  5
91
330
8C
100
AcDbEntity
  8
FORMAT
 62
     0
100
AcDbLine
 10
0.0
 20
0.0
 30
0.0
 11
0.0
 21
-2.5
 31
0.0
  0
LINE
  5
92
330
8C
100
AcDbEntity
  8
FORMAT
 62
     0
100
AcDbLine
 10
0.0
 20
0.0
 30
0.0
 11
2.5
 21
0.0
 31
0.0
  0
LINE
  5
93
330
8C
100
AcDbEntity
  8
FORMAT
 62
     0
100
AcDbLine
 10
0.0
 20
5.0
 30
0.0
 11
0.0
 21
22.5
 31
0.0
  0
LINE
  5
94
330
8C
100
AcDbEntity
  8
FORMAT
 62
     0
100
AcDbLine
 10
-5.0
 20
0.0
 30
0.0
 11
-22.5
 21
0.0
 31
0.0
  0
LINE
  5
95
330
8C
100
AcDbEntity
  8
FORMAT
 62
     0
100
AcDbLine
 10
0.0
 20
-5.0
 30
0.0
 11
0.0
 21
-22.5
 31
0.0
  0
LINE
  5
96
330
8C
100
AcDbEntity
  8
FORMAT
 62
     0
100
AcDbLine
 10
5.0
 20
0.0
 30
0.0
 11
22.5
 21
0.0
 31
0.0
  0
ENDBLK
  5
8E
330
8C
100
AcDbEntity
  8
0
100
AcDbBlockEnd
  0
ENDSEC
  0
SECTION
  2
ENTITIES
  0
CIRCLE
  5
83
330
1F
100
AcDbEntity
  8
0
  6
Continuous
 62
     7
370
    25
100
AcDbCircle
 10
139.8323425481
 20
108.7440552885
 30
0.0
 40
16.30000000000001
  0
CIRCLE
  5
84
330
1F
100
AcDbEntity
  8
0
  6
Continuous
 62
     7
370
    25
100
AcDbCircle
 10
139.8323425481
 20
108.7440552885
 30
0.0
 40
20.00000000000001
  0
CIRCLE
  5
85
330
1F
100
AcDbEntity
  8
0
  6
Continuous
 62
     7
370
    25
100
AcDbCircle
 10
139.8323425481
 20
108.7440552885
 30
0.0
 40
11.50000000000003
  0
LINE
  5
86
330
1F
100
AcDbEntity
  8
0
  6
Continuous
 62
     7
370
    25
100
AcDbLine
 10
112.3323425481
 20
124.6211876912
 30
0.0
 11
139.8323425481
 21
140.4983200939
 31
0.0
  0
LINE
  5
87
330
1F
100
AcDbEntity
  8
0
  6
Continuous
 62
     7
370
    25
100
AcDbLine
 10
112.3323425481
 20
92.8669228857
 30
0.0
 11
112.3323425481
 21
124.6211876912
 31
0.0
  0
LINE
  5
88
330
1F
100
AcDbEntity
  8
0
  6
Continuous
 62
     7
370
    25
100
AcDbLine
 10
167.3323425481
 20
124.6211876912
 30
0.0
 11
167.3323425481
 21
92.8669228857
 31
0.0
  0
LINE
  5
89
330
1F
100
AcDbEntity
  8
0
  6
Continuous
 62
     7
370
    25
100
AcDbLine
 10
139.8323425481
 20
140.4983200939
 30
0.0
 11
167.3323425481
 21
124.6211876912
 31
0.0
  0
LINE
  5
8A
330
1F
100
AcDbEntity
  8
0
  6
Continuous
 62
     7
370
    25
100
AcDbLine
 10
167.3323425481
 20
92.8669228857
 30
0.0
 11
139.8323425481
 21
76.989790483
 31
0.0
  0
LINE
  5
8B
330
1F
100
AcDbEntity
  8
0
  6
Continuous
 62
     7
370
    25
100
AcDbLine
 10
139.8323425481
 20
76.989790483
 30
0.0
 11
112.3323425481
 21
92.8669228857
 31
0.0
  0
INSERT
  5
97
330
1F
100
AcDbEntity
  8
FORMAT
 62
     7
100
AcDbBlockReference
  2
SW_CENTERMARKSYMBOL_0
 10
139.8323425481
 20
108.7440552885
 30
0.0
  0
LINE
  5
98
330
1F
100
AcDbEntity
  8
0
  6
Continuous
 62
     7
370
    25
100
AcDbLine
 10
159.8323425481
 20
196.1131597519
 30
0.0
 11
159.8323425481
 21
240.1131597519
 31
0.0
  0
LINE
  5
99
330
1F
100
AcDbEntity
  8
0
  6
Continuous
 62
     7
370
    25
100
AcDbLine
 10
119.8323425481
 20
240.1131597519
 30
0.0
 11
119.8323425481
 21
196.1131597519
 31
0.0
  0
LINE
  5
9A
330
1F
100
AcDbEntity
  8
0
  6
Continuous
 62
     7
370
    25
100
AcDbLine
 10
156.4323425481
 20
160.1131597519
 30
0.0
 11
156.4323425481
 21
160.3131597519
 31
0.0
  0
LINE
  5
9B
330
1F
100
AcDbEntity
  8
0
  6
Continuous
 62
     7
370
    25
100
AcDbLine
 10
123.2323425481
 20
160.3131597519
 30
0.0
 11
123.2323425481
 21
160.1131597519
 31
0.0
  0
LINE
  5
9C
330
1F
100
AcDbEntity
  8
0
  6
Continuous
 62
     7
370
    25
100
AcDbLine
 10
156.4323425481
 20
160.3131597519
 30
0.0
 11
154.7002917405
 21
161.3131597519
 31
0.0
  0
LINE
  5
9D
330
1F
100
AcDbEntity
  8
0
  6
Continuous
 62
     7
370
    25
100
AcDbLine
 10
124.9643933556
 20
161.3131597519
 30
0.0
 11
123.2323425481
 21
160.3131597519
 31
0.0
  0
LINE
  5
9E
330
1F
100
AcDbEntity
  8
0
  6
Continuous
 62
     7
370
    25
100
AcDbLine
 10
123.2323425481
 20
162.3131597519
 30
0.0
 11
124.9643933556
 21
161.3131597519
 31
0.0
  0
LINE
  5
9F
330
1F
100
AcDbEntity
  8
0
  6
Continuous
 62
     7
370
    25
100
AcDbLine
 10
154.7002917405
 20
161.3131597519
 30
0.0
 11
156.4323425481
 21
162.3131597519
 31
0.0
  0
LINE
  5
A0
330
1F
100
AcDbEntity
  8
0
  6
Continuous
 62
     7
370
    25
100
AcDbLine
 10
156.4323425481
 20
162.3131597519
 30
0.0
 11
154.7002917405
 21
163.3131597519
 31
0.0
  0
LINE
  5
A1
330
1F
100
AcDbEntity
  8
0
  6
Continuous
 62
     7
370
    25
100
AcDbLine
 10
124.9643933556
 20
163.3131597519
 30
0.0
 11
123.2323425481
 21
162.3131597519
 31
0.0
  0
LINE
  5
A2
330
1F
100
AcDbEntity
  8
0
  6
Continuous
 62
     7
370
    25
100
AcDbLine
 10
123.2323425481
 20
164.3131597519
 30
0.0
 11
124.9643933556
 21
163.3131597519
 31
0.0
  0
LINE
  5
A3
330
1F
100
AcDbEntity
  8
0
  6
Continuous
 62
     7
370
    25
100
AcDbLine
 10
154.7002917405
 20
163.3131597519
 30
0.0
 11
156.4323425481
 21
164.3131597519
 31
0.0
  0
LINE
  5
A4
330
1F
100
AcDbEntity
  8
0
  6
Continuous
 62
     7
370
    25
100
AcDbLine
 10
156.4323425481
 20
164.3131597519
 30
0.0
 11
154.7002917405
 21
165.3131597519
 31
0.0
  0
LINE
  5
A5
330
1F
100
AcDbEntity
  8
0
  6
Continuous
 62
     7
370
    25
100
AcDbLine
 10
124.9643933556
 20
165.3131597519
 30
0.0
 11
123.2323425481
 21
164.3131597519
 31
0.0
  0
LINE
  5
A6
330
1F
100
AcDbEntity
  8
0
  6
Continuous
 62
     7
370
    25
100
AcDbLine
 10
123.2323425481
 20
166.3131597519
 30
0.0
 11
124.9643933556
 21
165.3131597519
 31
0.0
  0
LINE
  5
A7
330
1F
100
AcDbEntity
  8
0
  6
Continuous
 62
     7
370
    25
100
AcDbLine
 10
154.7002917405
 20
165.3131597519
 30
0.0
 11
156.4323425481
 21
166.3131597519
 31
0.0
  0
LINE
  5
A8
330
1F
100
AcDbEntity
  8
0
  6
Continuous
 62
     7
370
    25
100
AcDbLine
 10
156.4323425481
 20
166.3131597519
 30
0.0
 11
156.4323425481
 21
180.1131597519
 31
0.0
  0
LINE
  5
A9
330
1F
100
AcDbEntity
  8
0
  6
Continuous
 62
     7
370
    25
100
AcDbLine
 10
123.2323425481
 20
180.1131597519
 30
0.0
 11
123.2323425481
 21
166.3131597519
 31
0.0
  0
LINE
  5
AA
330
1F
100
AcDbEntity
  8
0
  6
Continuous
 62
     7
370
    25
100
AcDbLine
 10
139.8323425481
 20
196.1131597519
 30
0.0
 11
139.8323425481
 21
180.1131597519
 31
0.0
  0
LINE
  5
AB
330
1F
100
AcDbEntity
  8
0
  6
Continuous
 62
     7
370
    25
100
AcDbLine
 10
167.3323425481
 20
196.1131597519
 30
0.0
 11
139.8323425481
 21
196.1131597519
 31
0.0
  0
LINE
  5
AC
330
1F
100
AcDbEntity
  8
0
  6
Continuous
 62
     7
370
    25
100
AcDbLine
 10
167.3323425481
 20
196.1131597519
 30
0.0
 11
167.3323425481
 21
180.1131597519
 31
0.0
  0
LINE
  5
AD
330
1F
100
AcDbEntity
  8
0
  6
Continuous
 62
     7
370
    25
100
AcDbLine
 10
139.8323425481
 20
180.1131597519
 30
0.0
 11
167.3323425481
 21
180.1131597519
 31
0.0
  0
LINE
  5
AE
330
1F
100
AcDbEntity
  8
0
  6
Continuous
 62
     7
370
    25
100
AcDbLine
 10
112.3323425481
 20
196.1131597519
 30
0.0
 11
112.3323425481
 21
180.1131597519
 31
0.0
  0
LINE
  5
AF
330
1F
100
AcDbEntity
  8
0
  6
Continuous
 62
     7
370
    25
100
AcDbLine
 10
139.8323425481
 20
196.1131597519
 30
0.0
 11
112.3323425481
 21
196.1131597519
 31
0.0
  0
LINE
  5
B0
330
1F
100
AcDbEntity
  8
0
  6
Continuous
 62
     7
370
    25
100
AcDbLine
 10
112.3323425481
 20
180.1131597519
 30
0.0
 11
139.8323425481
 21
180.1131597519
 31
0.0
  0
LINE
  5
B1
330
1F
100
AcDbEntity
  8
0
  6
Continuous
 62
     7
370
    25
100
AcDbLine
 10
159.8323425481
 20
240.1131597519
 30
0.0
 11
119.8323425481
 21
240.1131597519
 31
0.0
  0
LINE
  5
B2
330
1F
100
AcDbEntity
  8
0
  6
Continuous
 62
     7
370
    25
100
AcDbLine
 10
156.4323425481
 20
160.3131597519
 30
0.0
 11
123.2323425481
 21
160.3131597519
 31
0.0
  0
LINE
  5
B3
330
1F
100
AcDbEntity
  8
0
  6
Continuous
 62
     7
370
    25
100
AcDbLine
 10
156.4323425481
 20
160.1131597519
 30
0.0
 11
123.2323425481
 21
160.1131597519
 31
0.0
  0
LINE
  5
B4
330
1F
100
AcDbEntity
  8
0
  6
Continuous
 62
     7
370
    25
100
AcDbLine
 10
154.7002917405
 20
161.3131597519
 30
0.0
 11
124.9643933556
 21
161.3131597519
 31
0.0
  0
LINE
  5
B5
330
1F
100
AcDbEntity
  8
0
  6
Continuous
 62
     7
370
    25
100
AcDbLine
 10
156.4323425481
 20
162.3131597519
 30
0.0
 11
123.2323425481
 21
162.3131597519
 31
0.0
  0
LINE
  5
B6
330
1F
100
AcDbEntity
  8
0
  6
Continuous
 62
     7
370
    25
100
AcDbLine
 10
154.7002917405
 20
163.3131597519
 30
0.0
 11
124.9643933556
 21
163.3131597519
 31
0.0
  0
LINE
  5
B7
330
1F
100
AcDbEntity
  8
0
  6
Continuous
 62
     7
370
    25
100
AcDbLine
 10
156.4323425481
 20
164.3131597519
 30
0.0
 11
123.2323425481
 21
164.3131597519
 31
0.0
  0
LINE
  5
B8
330
1F
100
AcDbEntity
  8
0
  6
Continuous
 62
     7
370
    25
100
AcDbLine
 10
154.7002917405
 20
165.3131597519
 30
0.0
 11
124.9643933556
 21
165.3131597519
 31
0.0
  0
LINE
  5
B9
330
1F
100
AcDbEntity
  8
0
  6
Continuous
 62
     7
370
    25
100
AcDbLine
 10
156.4323425481
 20
166.3131597519
 30
0.0
 11
123.2323425481
 21
166.3131597519
 31
0.0
  0
LINE
  5
BA
330
1F
100
AcDbEntity
  8
0
  6
Continuous
 62
     7
370
    25
100
AcDbLine
 10
229.2689927719
 20
88.7440552885
 30
0.0
 11
273.2689927719
 21
88.7440552885
 31
0.0
  0
LINE
  5
BB
330
1F
100
AcDbEntity
  8
0
  6
Continuous
 62
     7
370
    25
100
AcDbLine
 10
273.2689927719
 20
128.7440552885
 30
0.0
 11
229.2689927719
 21
128.7440552885
 31
0.0
  0
LINE
  5
BC
330
1F
100
AcDbEntity
  8
0
  6
Continuous
 62
     7
370
    25
100
AcDbLine
 10
193.4689927719
 20
92.1440552885
 30
0.0
 11
194.4689927719
 21
93.876106096
 31
0.0
  0
LINE
  5
BD
330
1F
100
AcDbEntity
  8
0
  6
Continuous
 62
     7
370
    25
100
AcDbLine
 10
194.4689927719
 20
123.6120044809
 30
0.0
 11
193.4689927719
 21
125.3440552885
 31
0.0
  0
LINE
  5
BE
330
1F
100
AcDbEntity
  8
0
  6
Continuous
 62
     7
370
    25
100
AcDbLine
 10
193.2689927719
 20
92.1440552885
 30
0.0
 11
193.4689927719
 21
92.1440552885
 31
0.0
  0
LINE
  5
BF
330
1F
100
AcDbEntity
  8
0
  6
Continuous
 62
     7
370
    25
100
AcDbLine
 10
193.4689927719
 20
125.3440552885
 30
0.0
 11
193.2689927719
 21
125.3440552885
 31
0.0
  0
LINE
  5
C0
330
1F
100
AcDbEntity
  8
0
  6
Continuous
 62
     7
370
    25
100
AcDbLine
 10
195.4689927719
 20
125.3440552885
 30
0.0
 11
194.4689927719
 21
123.6120044809
 31
0.0
  0
LINE
  5
C1
330
1F
100
AcDbEntity
  8
0
  6
Continuous
 62
     7
370
    25
100
AcDbLine
 10
194.4689927719
 20
93.876106096
 30
0.0
 11
195.4689927719
 21
92.1440552885
 31
0.0
  0
LINE
  5
C2
330
1F
100
AcDbEntity
  8
0
  6
Continuous
 62
     7
370
    25
100
AcDbLine
 10
195.4689927719
 20
92.1440552885
 30
0.0
 11
196.4689927719
 21
93.876106096
 31
0.0
  0
LINE
  5
C3
330
1F
100
AcDbEntity
  8
0
  6
Continuous
 62
     7
370
    25
100
AcDbLine
 10
196.4689927719
 20
123.6120044809
 30
0.0
 11
195.4689927719
 21
125.3440552885
 31
0.0
  0
LINE
  5
C4
330
1F
100
AcDbEntity
  8
0
  6
Continuous
 62
     7
370
    25
100
AcDbLine
 10
197.4689927719
 20
125.3440552885
 30
0.0
 11
196.4689927719
 21
123.6120044809
 31
0.0
  0
LINE
  5
C5
330
1F
100
AcDbEntity
  8
0
  6
Continuous
 62
     7
370
    25
100
AcDbLine
 10
196.4689927719
 20
93.876106096
 30
0.0
 11
197.4689927719
 21
92.1440552885
 31
0.0
  0
LINE
  5
C6
330
1F
100
AcDbEntity
  8
0
  6
Continuous
 62
     7
370
    25
100
AcDbLine
 10
197.4689927719
 20
92.1440552885
 30
0.0
 11
198.4689927719
 21
93.876106096
 31
0.0
  0
LINE
  5
C7
330
1F
100
AcDbEntity
  8
0
  6
Continuous
 62
     7
370
    25
100
AcDbLine
 10
198.4689927719
 20
123.6120044809
 30
0.0
 11
197.4689927719
 21
125.3440552885
 31
0.0
  0
LINE
  5
C8
330
1F
100
AcDbEntity
  8
0
  6
Continuous
 62
     7
370
    25
100
AcDbLine
 10
199.4689927719
 20
125.3440552885
 30
0.0
 11
198.4689927719
 21
123.6120044809
 31
0.0
  0
LINE
  5
C9
330
1F
100
AcDbEntity
  8
0
  6
Continuous
 62
     7
370
    25
100
AcDbLine
 10
198.4689927719
 20
93.876106096
 30
0.0
 11
199.4689927719
 21
92.1440552885
 31
0.0
  0
LINE
  5
CA
330
1F
100
AcDbEntity
  8
0
  6
Continuous
 62
     7
370
    25
100
AcDbLine
 10
199.4689927719
 20
92.1440552885
 30
0.0
 11
213.2689927719
 21
92.1440552885
 31
0.0
  0
LINE
  5
CB
330
1F
100
AcDbEntity
  8
0
  6
Continuous
 62
     7
370
    25
100
AcDbLine
 10
213.2689927719
 20
125.3440552885
 30
0.0
 11
199.4689927719
 21
125.3440552885
 31
0.0
  0
LINE
  5
CC
330
1F
100
AcDbEntity
  8
0
  6
Continuous
 62
     7
370
    25
100
AcDbLine
 10
229.2689927719
 20
92.8669228857
 30
0.0
 11
213.2689927719
 21
92.8669228857
 31
0.0
  0
LINE
  5
CD
330
1F
100
AcDbEntity
  8
0
  6
Continuous
 62
     7
370
    25
100
AcDbLine
 10
229.2689927719
 20
76.989790483
 30
0.0
 11
229.2689927719
 21
92.8669228857
 31
0.0
  0
LINE
  5
CE
330
1F
100
AcDbEntity
  8
0
  6
Continuous
 62
     7
370
    25
100
AcDbLine
 10
229.2689927719
 20
76.989790483
 30
0.0
 11
213.2689927719
 21
76.989790483
 31
0.0
  0
LINE
  5
CF
330
1F
100
AcDbEntity
  8
0
  6
Continuous
 62
     7
370
    25
100
AcDbLine
 10
213.2689927719
 20
92.8669228857
 30
0.0
 11
213.2689927719
 21
76.989790483
 31
0.0
  0
LINE
  5
D0
330
1F
100
AcDbEntity
  8
0
  6
Continuous
 62
     7
370
    25
100
AcDbLine
 10
229.2689927719
 20
124.6211876912
 30
0.0
 11
213.2689927719
 21
124.6211876912
 31
0.0
  0
LINE
  5
D1
330
1F
100
AcDbEntity
  8
0
  6
Continuous
 62
     7
370
    25
100
AcDbLine
 10
229.2689927719
 20
92.8669228857
 30
0.0
 11
229.2689927719
 21
124.6211876912
 31
0.0
  0
LINE
  5
D2
330
1F
100
AcDbEntity
  8
0
  6
Continuous
 62
     7
370
    25
100
AcDbLine
 10
213.2689927719
 20
124.6211876912
 30
0.0
 11
213.2689927719
 21
92.8669228857
 31
0.0
  0
LINE
  5
D3
330
1F
100
AcDbEntity
  8
0
  6
Continuous
 62
     7
370
    25
100
AcDbLine
 10
229.2689927719
 20
140.4983200939
 30
0.0
 11
213.2689927719
 21
140.4983200939
 31
0.0
  0
LINE
  5
D4
330
1F
100
AcDbEntity
  8
0
  6
Continuous
 62
     7
370
    25
100
AcDbLine
 10
229.2689927719
 20
124.6211876912
 30
0.0
 11
229.2689927719
 21
140.4983200939
 31
0.0
  0
LINE
  5
D5
330
1F
100
AcDbEntity
  8
0
  6
Continuous
 62
     7
370
    25
100
AcDbLine
 10
213.2689927719
 20
140.4983200939
 30
0.0
 11
213.2689927719
 21
124.6211876912
 31
0.0
  0
LINE
  5
D6
330
1F
100
AcDbEntity
  8
0
  6
Continuous
 62
     7
370
    25
100
AcDbLine
 10
273.2689927719
 20
108.7440552885
 30
0.0
 11
273.2689927719
 21
128.7440552885
 31
0.0
  0
LINE
  5
D7
330
1F
100
AcDbEntity
  8
0
  6
Continuous
 62
     7
370
    25
100
AcDbLine
 10
273.2689927719
 20
88.7440552885
 30
0.0
 11
273.2689927719
 21
108.7440552885
 31
0.0
  0
LINE
  5
D8
330
1F
100
AcDbEntity
  8
0
  6
Continuous
 62
     7
370
    25
100
AcDbLine
 10
194.4689927719
 20
108.7440552885
 30
0.0
 11
194.4689927719
 21
123.6120044809
 31
0.0
  0
LINE
  5
D9
330
1F
100
AcDbEntity
  8
0
  6
Continuous
 62
     7
370
    25
100
AcDbLine
 10
194.4689927719
 20
93.876106096
 30
0.0
 11
194.4689927719
 21
108.7440552885
 31
0.0
  0
LINE
  5
DA
330
1F
100
AcDbEntity
  8
0
  6
Continuous
 62
     7
370
    25
100
AcDbLine
 10
193.4689927719
 20
108.7440552885
 30
0.0
 11
193.4689927719
 21
125.3440552885
 31
0.0
  0
LINE
  5
DB
330
1F
100
AcDbEntity
  8
0
  6
Continuous
 62
     7
370
    25
100
AcDbLine
 10
193.4689927719
 20
92.1440552885
 30
0.0
 11
193.4689927719
 21
108.7440552885
 31
0.0
  0
LINE
  5
DC
330
1F
100
AcDbEntity
  8
0
  6
Continuous
 62
     7
370
    25
100
AcDbLine
 10
193.2689927719
 20
108.7440552885
 30
0.0
 11
193.2689927719
 21
125.3440552885
 31
0.0
  0
LINE
  5
DD
330
1F
100
AcDbEntity
  8
0
  6
Continuous
 62
     7
370
    25
100
AcDbLine
 10
193.2689927719
 20
92.1440552885
 30
0.0
 11
193.2689927719
 21
108.7440552885
 31
0.0
  0
LINE
  5
DE
330
1F
100
AcDbEntity
  8
0
  6
Continuous
 62
     7
370
    25
100
AcDbLine
 10
195.4689927719
 20
108.7440552885
 30
0.0
 11
195.4689927719
 21
125.3440552885
 31
0.0
  0
LINE
  5
DF
330
1F
100
AcDbEntity
  8
0
  6
Continuous
 62
     7
370
    25
100
AcDbLine
 10
195.4689927719
 20
92.1440552885
 30
0.0
 11
195.4689927719
 21
108.7440552885
 31
0.0
  0
LINE
  5
E0
330
1F
100
AcDbEntity
  8
0
  6
Continuous
 62
     7
370
    25
100
AcDbLine
 10
196.4689927719
 20
108.7440552885
 30
0.0
 11
196.4689927719
 21
123.6120044809
 31
0.0
  0
LINE
  5
E1
330
1F
100
AcDbEntity
  8
0
  6
Continuous
 62
     7
370
    25
100
AcDbLine
 10
196.4689927719
 20
93.876106096
 30
0.0
 11
196.4689927719
 21
108.7440552885
 31
0.0
  0
LINE
  5
E2
330
1F
100
AcDbEntity
  8
0
  6
Continuous
 62
     7
370
    25
100
AcDbLine
 10
197.4689927719
 20
108.7440552885
 30
0.0
 11
197.4689927719
 21
125.3440552885
 31
0.0
  0
LINE
  5
E3
330
1F
100
AcDbEntity
  8
0
  6
Continuous
 62
     7
370
    25
100
AcDbLine
 10
197.4689927719
 20
92.1440552885
 30
0.0
 11
197.4689927719
 21
108.7440552885
 31
0.0
  0
LINE
  5
E4
330
1F
100
AcDbEntity
  8
0
  6
Continuous
 62
     7
370
    25
100
AcDbLine
 10
198.4689927719
 20
108.7440552885
 30
0.0
 11
198.4689927719
 21
123.6120044809
 31
0.0
  0
LINE
  5
E5
330
1F
100
AcDbEntity
  8
0
  6
Continuous
 62
     7
370
    25
100
AcDbLine
 10
198.4689927719
 20
93.876106096
 30
0.0
 11
198.4689927719
 21
108.7440552885
 31
0.0
  0
LINE
  5
E6
330
1F
100
AcDbEntity
  8
0
  6
Continuous
 62
     7
370
    25
100
AcDbLine
 10
199.4689927719
 20
108.7440552885
 30
0.0
 11
199.4689927719
 21
125.3440552885
 31
0.0
  0
LINE
  5
E7
330
1F
100
AcDbEntity
  8
0
  6
Continuous
 62
     7
370
    25
100
AcDbLine
 10
199.4689927719
 20
92.1440552885
 30
0.0
 11
199.4689927719
 21
108.7440552885
 31
0.0
  0
LINE
  5
E8
330
1F
100
AcDbEntity
  8
0
  6
Continuous
 62
     7
370
    25
100
AcDbLine
 10
40.1899085624
 20
128.7440552885
 30
0.0
 11
-3.8100914376
 21
128.7440552885
 31
0.0
  0
LINE
  5
E9
330
1F
100
AcDbEntity
  8
0
  6
Continuous
 62
     7
370
    25
100
AcDbLine
 10
-3.8100914376
 20
88.7440552885
 30
0.0
 11
40.1899085624
 21
88.7440552885
 31
0.0
  0
LINE
  5
EA
330
1F
100
AcDbEntity
  8
0
  6
Continuous
 62
     7
370
    25
100
AcDbLine
 10
76.1899085624
 20
125.3440552885
 30
0.0
 11
75.9899085624
 21
125.3440552885
 31
0.0
  0
LINE
  5
EB
330
1F
100
AcDbEntity
  8
0
  6
Continuous
 62
     7
370
    25
100
AcDbLine
 10
75.9899085624
 20
92.1440552885
 30
0.0
 11
76.1899085624
 21
92.1440552885
 31
0.0
  0
LINE
  5
EC
330
1F
100
AcDbEntity
  8
0
  6
Continuous
 62
     7
370
    25
100
AcDbLine
 10
75.9899085624
 20
125.3440552885
 30
0.0
 11
74.9899085624
 21
123.6120044809
 31
0.0
  0
LINE
  5
ED
330
1F
100
AcDbEntity
  8
0
  6
Continuous
 62
     7
370
    25
100
AcDbLine
 10
74.9899085624
 20
93.876106096
 30
0.0
 11
75.9899085624
 21
92.1440552885
 31
0.0
  0
LINE
  5
EE
330
1F
100
AcDbEntity
  8
0
  6
Continuous
 62
     7
370
    25
100
AcDbLine
 10
73.9899085624
 20
92.1440552885
 30
0.0
 11
74.9899085624
 21
93.876106096
 31
0.0
  0
LINE
  5
EF
330
1F
100
AcDbEntity
  8
0
  6
Continuous
 62
     7
370
    25
100
AcDbLine
 10
74.9899085624
 20
123.6120044809
 30
0.0
 11
73.9899085624
 21
125.3440552885
 31
0.0
  0
LINE
  5
F0
330
1F
100
AcDbEntity
  8
0
  6
Continuous
 62
     7
370
    25
100
AcDbLine
 10
73.9899085624
 20
125.3440552885
 30
0.0
 11
72.9899085624
 21
123.6120044809
 31
0.0
  0
LINE
  5
F1
330
1F
100
AcDbEntity
  8
0
  6
Continuous
 62
     7
370
    25
100
AcDbLine
 10
72.9899085624
 20
93.876106096
 30
0.0
 11
73.9899085624
 21
92.1440552885
 31
0.0
  0
LINE
  5
F2
330
1F
100
AcDbEntity
  8
0
  6
Continuous
 62
     7
370
    25
100
AcDbLine
 10
71.9899085624
 20
92.1440552885
 30
0.0
 11
72.9899085624
 21
93.876106096
 31
0.0
  0
LINE
  5
F3
330
1F
100
AcDbEntity
  8
0
  6
Continuous
 62
     7
370
    25
100
AcDbLine
 10
72.9899085624
 20
123.6120044809
 30
0.0
 11
71.9899085624
 21
125.3440552885
 31
0.0
  0
LINE
  5
F4
330
1F
100
AcDbEntity
  8
0
  6
Continuous
 62
     7
370
    25
100
AcDbLine
 10
71.9899085624
 20
125.3440552885
 30
0.0
 11
70.9899085624
 21
123.6120044809
 31
0.0
  0
LINE
  5
F5
330
1F
100
AcDbEntity
  8
0
  6
Continuous
 62
     7
370
    25
100
AcDbLine
 10
70.9899085624
 20
93.876106096
 30
0.0
 11
71.9899085624
 21
92.1440552885
 31
0.0
  0
LINE
  5
F6
330
1F
100
AcDbEntity
  8
0
  6
Continuous
 62
     7
370
    25
100
AcDbLine
 10
69.9899085624
 20
92.1440552885
 30
0.0
 11
70.9899085624
 21
93.876106096
 31
0.0
  0
LINE
  5
F7
330
1F
100
AcDbEntity
  8
0
  6
Continuous
 62
     7
370
    25
100
AcDbLine
 10
70.9899085624
 20
123.6120044809
 30
0.0
 11
69.9899085624
 21
125.3440552885
 31
0.0
  0
LINE
  5
F8
330
1F
100
AcDbEntity
  8
0
  6
Continuous
 62
     7
370
    25
100
AcDbLine
 10
69.9899085624
 20
125.3440552885
 30
0.0
 11
56.1899085624
 21
125.3440552885
 31
0.0
  0
LINE
  5
F9
330
1F
100
AcDbEntity
  8
0
  6
Continuous
 62
     7
370
    25
100
AcDbLine
 10
56.1899085624
 20
92.1440552885
 30
0.0
 11
69.9899085624
 21
92.1440552885
 31
0.0
  0
LINE
  5
FA
330
1F
100
AcDbEntity
  8
0
  6
Continuous
 62
     7
370
    25
100
AcDbLine
 10
40.1899085624
 20
92.8669228857
 30
0.0
 11
56.1899085624
 21
92.8669228857
 31
0.0
  0
LINE
  5
FB
330
1F
100
AcDbEntity
  8
0
  6
Continuous
 62
     7
370
    25
100
AcDbLine
 10
40.1899085624
 20
124.6211876912
 30
0.0
 11
40.1899085624
 21
92.8669228857
 31
0.0
  0
LINE
  5
FC
330
1F
100
AcDbEntity
  8
0
  6
Continuous
 62
     7
370
    25
100
AcDbLine
 10
40.1899085624
 20
124.6211876912
 30
0.0
 11
56.1899085624
 21
124.6211876912
 31
0.0
  0
LINE
  5
FD
330
1F
100
AcDbEntity
  8
0
  6
Continuous
 62
     7
370
    25
100
AcDbLine
 10
56.1899085624
 20
92.8669228857
 30
0.0
 11
56.1899085624
 21
124.6211876912
 31
0.0
  0
LINE
  5
FE
330
1F
100
AcDbEntity
  8
0
  6
Continuous
 62
     7
370
    25
100
AcDbLine
 10
40.1899085624
 20
140.4983200939
 30
0.0
 11
40.1899085624
 21
124.6211876912
 31
0.0
  0
LINE
  5
FF
330
1F
100
AcDbEntity
  8
0
  6
Continuous
 62
     7
370
    25
100
AcDbLine
 10
40.1899085624
 20
140.4983200939
 30
0.0
 11
56.1899085624
 21
140.4983200939
 31
0.0
  0
LINE
  5
100
330
1F
100
AcDbEntity
  8
0
  6
Continuous
 62
     7
370
    25
100
AcDbLine
 10
56.1899085624
 20
124.6211876912
 30
0.0
 11
56.1899085624
 21
140.4983200939
 31
0.0
  0
LINE
  5
101
330
1F
100
AcDbEntity
  8
0
  6
Continuous
 62
     7
370
    25
100
AcDbLine
 10
40.1899085624
 20
76.989790483
 30
0.0
 11
56.1899085624
 21
76.989790483
 31
0.0
  0
LINE
  5
102
330
1F
100
AcDbEntity
  8
0
  6
Continuous
 62
     7
370
    25
100
AcDbLine
 10
40.1899085624
 20
92.8669228857
 30
0.0
 11
40.1899085624
 21
76.989790483
 31
0.0
  0
LINE
  5
103
330
1F
100
AcDbEntity
  8
0
  6
Continuous
 62
     7
370
    25
100
AcDbLine
 10
56.1899085624
 20
76.989790483
 30
0.0
 11
56.1899085624
 21
92.8669228857
 31
0.0
  0
LINE
  5
104
330
1F
100
AcDbEntity
  8
0
  6
Continuous
 62
     7
370
    25
100
AcDbLine
 10
-3.8100914376
 20
128.7440552885
 30
0.0
 11
-3.8100914376
 21
88.7440552885
 31
0.0
  0
LINE
  5
105
330
1F
100
AcDbEntity
  8
0
  6
Continuous
 62
     7
370
    25
100
AcDbLine
 10
75.9899085624
 20
125.3440552885
 30
0.0
 11
75.9899085624
 21
92.1440552885
 31
0.0
  0
LINE
  5
106
330
1F
100
AcDbEntity
  8
0
  6
Continuous
 62
     7
370
    25
100
AcDbLine
 10
76.1899085624
 20
125.3440552885
 30
0.0
 11
76.1899085624
 21
92.1440552885
 31
0.0
  0
LINE
  5
107
330
1F
100
AcDbEntity
  8
0
  6
Continuous
 62
     7
370
    25
100
AcDbLine
 10
74.9899085624
 20
123.6120044809
 30
0.0
 11
74.9899085624
 21
93.876106096
 31
0.0
  0
LINE
  5
108
330
1F
100
AcDbEntity
  8
0
  6
Continuous
 62
     7
370
    25
100
AcDbLine
 10
73.9899085624
 20
125.3440552885
 30
0.0
 11
73.9899085624
 21
92.1440552885
 31
0.0
  0
LINE
  5
109
330
1F
100
AcDbEntity
  8
0
  6
Continuous
 62
     7
370
    25
100
AcDbLine
 10
72.9899085624
 20
123.6120044809
 30
0.0
 11
72.9899085624
 21
93.876106096
 31
0.0
  0
LINE
  5
10A
330
1F
100
AcDbEntity
  8
0
  6
Continuous
 62
     7
370
    25
100
AcDbLine
 10
71.9899085624
 20
125.3440552885
 30
0.0
 11
71.9899085624
 21
92.1440552885
 31
0.0
  0
LINE
  5
10B
330
1F
100
AcDbEntity
  8
0
  6
Continuous
 62
     7
370
    25
100
AcDbLine
 10
70.9899085624
 20
123.6120044809
 30
0.0
 11
70.9899085624
 21
93.876106096
 31
0.0
  0
LINE
  5
10C
330
1F
100
AcDbEntity
  8
0
  6
Continuous
 62
     7
370
    25
100
AcDbLine
 10
69.9899085624
 20
125.3440552885
 30
0.0
 11
69.9899085624
 21
92.1440552885
 31
0.0
  0
LINE
  5
10D
330
1F
100
AcDbEntity
  8
0
  6
Continuous
 62
     7
370
    25
100
AcDbLine
 10
247.1033417023
 20
34.1406952833
 30
0.0
 11
215.9906433301
 21
52.1016737434
 31
0.0
  0
LINE
  5
10E
330
1F
100
AcDbEntity
  8
0
  6
Continuous
 62
     7
370
    25
100
AcDbLine
 10
195.9922686774
 20
17.4597192482
 30
0.0
 11
227.1049670496
 21
-0.5012592119
 31
0.0
  0
LINE
  5
10F
330
1F
100
AcDbEntity
  8
0
  6
Continuous
 62
     7
370
    25
100
AcDbLine
 10
270.8593239795
 20
16.5007831384
 30
0.0
 11
270.7179026233
 21
16.5824239496
 31
0.0
  0
LINE
  5
110
330
1F
100
AcDbEntity
  8
0
  6
Continuous
 62
     7
370
    25
100
AcDbLine
 10
254.1192516615
 20
-12.1703982814
 30
0.0
 11
254.2606730178
 21
-12.2520390926
 31
0.0
  0
LWPOLYLINE
  5
111
330
1F
100
AcDbEntity
  8
0
  6
Continuous
 62
     7
370
    25
100
AcDbPolyline
 90
       91
 70
   128
 43
0.0
 10
194.4656154704
 20
28.1269703845
 10
194.4936918386
 20
29.0716103524
 10
194.5777841582
 20
30.0440644143
 10
194.7174827396
 20
31.0395948714
 10
194.9121069855
 20
32.0533515997
 10
195.1607087062
 20
33.0803956781
 10
195.462076739
 20
34.1157234512
 10
195.8147428491
 20
35.1542909061
 10
196.2169888828
 20
36.1910382466
 10
196.6668551378
 20
37.2209145439
 10
197.1621499109
 20
38.2389023441
 10
197.7004601757
 20
39.2400421131
 10
198.2791633389
 20
40.2194563984
 10
198.8954400166
 20
41.1723735922
 10
199.546287771
 20
42.0941511777
 10
200.2285357371
 20
42.9802983472
 10
200.9388600714
 20
43.8264978806
 10
201.6738001453
 20
44.6286271789
 10
202.4297754045
 20
45.3827783489
 10
203.2031028135
 20
46.0852772418
 10
203.990014799
 20
46.7327013537
 10
204.7866776049
 20
47.3218964993
 10
205.5892099701
 20
47.8499921791
 10
206.3937020374
 20
48.314415564
 10
207.1962344026
 20
48.7129040301
 10
207.9928972084
 20
49.0435161815
 10
208.7798091939
 20
49.3046413091
 10
209.553136603
 20
49.4950072376
 10
210.3091118622
 20
49.6136865231
 10
211.044051936
 20
49.6601009723
 10
211.7543762704
 20
49.6340244585
 10
212.4366242365
 20
49.5355840239
 10
213.0874719909
 20
49.3652592605
 10
213.7037486686
 20
49.1238799733
 10
214.2824518317
 20
48.812622138
 10
214.8207620966
 20
48.4330021714
 10
215.3160568697
 20
47.9868695439
 10
215.7659231246
 20
47.4763977688
 10
216.1681691583
 20
46.9040738132
 10
216.5208352685
 20
46.272685982
 10
216.8222033013
 20
45.5853103332
 10
217.0708050219
 20
44.8452956919
 10
217.2654292679
 20
44.056247335
 10
217.4051278493
 20
43.2220094267
 10
217.4892201688
 20
42.3466462904
 10
217.5172965371
 20
41.4344226072
 10
217.4892201688
 20
40.4897826392
 10
217.4051278493
 20
39.5173285774
 10
217.2654292679
 20
38.5217981202
 10
217.0708050219
 20
37.508041392
 10
216.8222033013
 20
36.4809973135
 10
216.5208352685
 20
35.4456695404
 10
216.1681691583
 20
34.4071020855
 10
215.7659231246
 20
33.370354745
 10
215.3160568697
 20
32.3404784477
 10
214.8207620966
 20
31.3224906475
 10
214.2824518317
 20
30.3213508786
 10
213.7037486686
 20
29.3419365932
 10
213.0874719909
 20
28.3890193994
 10
212.4366242365
 20
27.4672418139
 10
211.7543762704
 20
26.5810946445
 10
211.044051936
 20
25.7348951111
 10
210.3091118622
 20
24.9327658127
 10
209.553136603
 20
24.1786146427
 10
208.7798091939
 20
23.4761157498
 10
207.9928972084
 20
22.828691638
 10
207.1962344026
 20
22.2394964924
 10
206.3937020374
 20
21.7114008125
 10
205.5892099701
 20
21.2469774276
 10
204.7866776049
 20
20.8484889615
 10
203.990014799
 20
20.5178768101
 10
203.2031028135
 20
20.2567516825
 10
202.4297754045
 20
20.0663857541
 10
201.6738001453
 20
19.9477064685
 10
200.9388600714
 20
19.9012920193
 10
200.2285357371
 20
19.9273685331
 10
199.546287771
 20
20.0258089677
 10
198.8954400166
 20
20.1961337311
 10
198.2791633389
 20
20.4375130183
 10
197.7004601757
 20
20.7487708537
 10
197.1621499109
 20
21.1283908202
 10
196.6668551378
 20
21.5745234477
 10
196.2169888828
 20
22.0849952228
 10
195.8147428491
 20
22.6573191784
 10
195.462076739
 20
23.2887070096
 10
195.1607087062
 20
23.9760826584
 10
194.9121069855
 20
24.7160972997
 10
194.7174827396
 20
25.5051456567
 10
194.5777841582
 20
26.3393835649
 10
194.4936918386
 20
27.2147467013
 10
194.4656154704
 20
28.1269703845
  0
LWPOLYLINE
  5
112
330
1F
100
AcDbEntity
  8
0
  6
Continuous
 62
     7
370
    25
100
AcDbPolyline
 90
      100
 70
   128
 43
0.0
 10
191.84932038
 20
26.6166153776
 10
191.8777930744
 20
27.6688166912
 10
191.9630965081
 20
28.7496550346
 10
192.1048871942
 20
29.8547782535
 10
192.3025941918
 20
30.9797364065
 10
192.5554214045
 20
32.1199996842
 10
192.8623507863
 20
33.270976649
 10
193.222146441
 20
34.4280327227
 10
193.6333595985
 20
35.5865088489
 10
194.0943344485
 20
36.7417402533
 10
194.603214808
 20
37.8890752265
 10
195.1579515953
 20
39.0238938557
 10
195.7563110813
 20
40.1416266267
 10
196.3958838835
 20
41.2377728242
 10
197.0740946679
 20
42.3079186543
 10
197.7882125191
 20
43.3477550175
 10
198.5353619365
 20
44.3530948597
 10
199.3125344131
 20
45.3198900322
 10
200.1166005497
 20
46.244247592
 10
200.9443226557
 20
47.1224454776
 10
201.7923677864
 20
47.950947496
 10
202.6573211633
 20
48.7264175619
 10
203.5356999244
 20
49.4457331312
 10
204.4239671484
 20
50.1059977739
 10
205.3185460969
 20
50.7045528373
 10
206.2158346161
 20
51.2389881515
 10
207.1122196418
 20
51.707151734
 10
208.0040917479
 20
52.1071584553
 10
208.8878596802
 20
52.4373976296
 10
209.7599648171
 20
52.6965395003
 10
210.6168954992
 20
52.8835405944
 10
211.4552011689
 20
52.9976479247
 10
212.2715062652
 20
53.0384020211
 10
213.0625238156
 20
53.0056387813
 10
213.8250686716
 20
52.8994901313
 10
214.5560703343
 20
52.7203834943
 10
215.2525853178
 20
52.4690400694
 10
215.9118090023
 20
52.1464719279
 10
216.5310869266
 20
51.7539779379
 10
217.107925477
 20
51.2931385342
 10
217.6400019284
 20
50.7658093543
 10
218.1251737966
 20
50.1741137668
 10
218.5614874658
 20
49.520434321
 10
218.9471860548
 20
48.8074031532
 10
219.2807164915
 20
48.0378913884
 10
219.5607357666
 20
47.2149975787
 10
219.7861163413
 20
46.3420352273
 10
219.9559506875
 20
45.4225194452
 10
220.0695549424
 20
44.4601527981
 10
220.1264716616
 20
43.4588103968
 10
220.1264716616
 20
42.4225242937
 10
220.0695549424
 20
41.3554672471
 10
219.9559506875
 20
40.2619359193
 10
219.7861163413
 20
39.1463335749
 10
219.5607357666
 20
38.0131523508
 10
219.2807164915
 20
36.8669551679
 10
218.9471860548
 20
35.7123573576
 10
218.5614874658
 20
34.5540080778
 10
218.1251737966
 20
33.3965715923
 10
217.6400019284
 20
32.2447084893
 10
217.107925477
 20
31.1030569149
 10
216.5310869266
 20
29.9762138971
 10
215.9118090023
 20
28.868716835
 10
215.2525853178
 20
27.7850252284
 10
214.5560703343
 20
26.7295027209
 10
213.8250686716
 20
25.7063995291
 10
213.0625238156
 20
24.7198353285
 10
212.2715062652
 20
23.7737826649
 10
211.4552011689
 20
22.8720509585
 10
210.6168954992
 20
22.0182711646
 10
209.7599648171
 20
21.2158811531
 10
208.8878596802
 20
20.4681118653
 10
208.0040917479
 20
19.7779743043
 10
207.1122196418
 20
19.1482474104
 10
206.2158346161
 20
18.5814668717
 10
205.3185460969
 20
18.0799149132
 10
204.4239671484
 20
17.6456111077
 10
203.5356999244
 20
17.2803042434
 10
202.6573211633
 20
16.985465282
 10
201.7923677864
 20
16.762281436
 10
200.9443226557
 20
16.6116513879
 10
200.1166005497
 20
16.5341816719
 10
199.3125344131
 20
16.530184231
 10
198.5353619365
 20
16.5996751616
 10
197.7882125191
 20
16.7423746483
 10
197.0740946679
 20
16.9577080905
 10
196.3958838835
 20
17.2448084165
 10
195.7563110813
 20
17.6025195747
 10
195.1579515953
 20
18.0294011884
 10
194.603214808
 20
18.523734356
 10
194.0943344485
 20
19.0835285723
 10
193.6333595985
 20
19.7065297437
 10
193.222146441
 20
20.3902292642
 10
192.8623507863
 20
21.1318741173
 10
192.5554214045
 20
21.9284779608
 10
192.3025941918
 20
22.7768331522
 10
192.1048871942
 20
23.6735236646
 10
191.9630965081
 20
24.6149388419
 10
191.8777930744
 20
25.5972879372
 10
191.84932038
 20
26.6166153776
  0
LWPOLYLINE
  5
113
330
1F
100
AcDbEntity
  8
0
  6
Continuous
 62
     7
370
    25
100
AcDbPolyline
 90
       51
 70
   128
 43
0.0
 10
247.1033417023
 20
34.1406952833
 10
247.6437852988
 20
33.7929994778
 10
248.2206238493
 20
33.3321600741
 10
248.7527003006
 20
32.8048308942
 10
249.2378721688
 20
32.2131353067
 10
249.674185838
 20
31.5594558609
 10
250.059884427
 20
30.8464246931
 10
250.3934148637
 20
30.0769129283
 10
250.6734341388
 20
29.2540191186
 10
250.8988147135
 20
28.3810567672
 10
251.0686490598
 20
27.4615409851
 10
251.1822533146
 20
26.499174338
 10
251.2391700338
 20
25.4978319367
 10
251.2391700338
 20
24.4615458336
 10
251.1822533146
 20
23.394488787
 10
251.0686490598
 20
22.3009574592
 10
250.8988147135
 20
21.1853551148
 10
250.6734341388
 20
20.0521738907
 10
250.3934148637
 20
18.9059767078
 10
250.059884427
 20
17.7513788975
 10
249.674185838
 20
16.5930296177
 10
249.2378721688
 20
15.4355931322
 10
248.7527003006
 20
14.2837300292
 10
248.2206238493
 20
13.1420784548
 10
247.6437852988
 20
12.015235437
 10
247.0245073745
 20
10.9077383749
 10
246.3652836901
 20
9.8240467683
 10
245.6687687065
 20
8.7685242608
 10
244.9377670438
 20
7.745421069
 10
244.1752221878
 20
6.7588568684
 10
243.3842046374
 20
5.8128042048
 10
242.5678995411
 20
4.9110724984
 10
241.7295938714
 20
4.0572927045
 10
240.8726631893
 20
3.254902693
 10
240.0005580524
 20
2.5071334052
 10
239.1167901201
 20
1.8169958442
 10
238.224918014
 20
1.1872689503
 10
237.3285329883
 20
0.6204884116
 10
236.4312444691
 20
0.1189364531
 10
235.5366655207
 20
-0.3153673524
 10
234.6483982966
 20
-0.6806742167
 10
233.7700195355
 20
-0.9755131781
 10
232.9050661586
 20
-1.1986970241
 10
232.057021028
 20
-1.3493270722
 10
231.2292989219
 20
-1.4267967882
 10
230.4252327853
 20
-1.4307942291
 10
229.6480603087
 20
-1.3613032985
 10
228.9009108913
 20
-1.2186038118
 10
228.1867930401
 20
-1.0032703696
 10
227.5085822557
 20
-0.7161700436
 10
227.1049670496
 20
-0.5012592119
  0
LWPOLYLINE
  5
114
330
1F
100
AcDbEntity
  8
0
  6
Continuous
 62
     7
370
    25
100
AcDbPolyline
 90
       29
 70
   128
 43
0.0
 10
201.5366832823
 20
24.0449298253
 10
201.5647596505
 20
24.9895697933
 10
201.64885197
 20
25.9620238551
 10
201.7885505515
 20
26.9575543123
 10
201.9831747974
 20
27.9713110406
 10
202.2317765181
 20
28.998355119
 10
202.5331445509
 20
30.0336828921
 10
202.885810661
 20
31.072250347
 10
203.2880566947
 20
32.1089976875
 10
203.7379229497
 20
33.1388739848
 10
204.2332177228
 20
34.156861785
 10
204.7715279876
 20
35.158001554
 10
205.3502311507
 20
36.1374158393
 10
205.9665078285
 20
37.0903330331
 10
206.6173555828
 20
38.0121106186
 10
207.2996035489
 20
38.898257788
 10
208.0099278833
 20
39.7444573215
 10
208.7448679572
 20
40.5465866198
 10
209.5008432163
 20
41.3007377898
 10
210.2741706254
 20
42.0032366827
 10
211.0610826109
 20
42.6506607946
 10
211.8577454168
 20
43.2398559402
 10
212.6602777819
 20
43.76795162
 10
213.4647698493
 20
44.2323750049
 10
214.2673022144
 20
44.630863471
 10
215.0639650203
 20
44.9614756224
 10
215.8508770058
 20
45.22260075
 10
216.6242044149
 20
45.4129666785
 10
216.8697255728
 20
45.4590456215
  0
ARC
  5
115
330
1F
100
AcDbEntity
  8
0
  6
Continuous
 62
     7
370
    25
100
AcDbCircle
 10
213.2828803888
 20
23.8705102359
 30
0.0
 40
11.74749201565321
100
AcDbArc
 50
179.1492759875
 51
199.1320749795
  0
ARC
  5
116
330
1F
100
AcDbEntity
  8
0
  6
Continuous
 62
     7
370
    25
100
AcDbCircle
 10
225.665710164
 20
23.3637729353
 30
0.0
 40
17.35417474741569
100
AcDbArc
 50
118.9312517846
 51
177.7505445599
  0
LWPOLYLINE
  5
117
330
1F
100
AcDbEntity
  8
0
  6
Continuous
 62
     7
370
    25
100
AcDbPolyline
 90
        3
 70
   128
 43
0.0
 10
208.3658667449
 20
23.1272854409
 10
208.3534274962
 20
23.2756402572
 10
208.3249083817
 20
24.0449298253
  0
LINE
  5
118
330
1F
100
AcDbEntity
  8
0
  6
Continuous
 62
     7
370
    25
100
AcDbLine
 10
237.1041543759
 20
-9.1089351293
 30
0.0
 11
248.4178628749
 21
-15.6402000239
 31
0.0
  0
LINE
  5
119
330
1F
100
AcDbEntity
  8
0
  6
Continuous
 62
     7
370
    25
100
AcDbLine
 10
256.5495908586
 20
15.0810029907
 30
0.0
 11
237.1041543759
 21
-9.1089351293
 31
0.0
  0
LINE
  5
11A
330
1F
100
AcDbEntity
  8
0
  6
Continuous
 62
     7
370
    25
100
AcDbLine
 10
256.5495908586
 20
15.0810029907
 30
0.0
 11
267.8632993576
 21
8.5497380962
 31
0.0
  0
LINE
  5
11B
330
1F
100
AcDbEntity
  8
0
  6
Continuous
 62
     7
370
    25
100
AcDbLine
 10
248.4178628749
 20
-15.6402000239
 30
0.0
 11
267.8632993576
 21
8.5497380962
 31
0.0
  0
LINE
  5
11C
330
1F
100
AcDbEntity
  8
0
  6
Continuous
 62
     7
370
    25
100
AcDbLine
 10
237.1041543759
 20
-9.1089351293
 30
0.0
 11
217.6587178933
 21
-7.3702200844
 31
0.0
  0
LINE
  5
11D
330
1F
100
AcDbEntity
  8
0
  6
Continuous
 62
     7
370
    25
100
AcDbLine
 10
217.6587178933
 20
-7.3702200844
 30
0.0
 11
217.6587178933
 21
4.9519443513
 31
0.0
  0
LINE
  5
11E
330
1F
100
AcDbEntity
  8
0
  6
Continuous
 62
     7
370
    25
100
AcDbLine
 10
235.5474081661
 20
40.8117937155
 30
0.0
 11
237.1041543759
 21
42.7483712008
 31
0.0
  0
LINE
  5
11F
330
1F
100
AcDbEntity
  8
0
  6
Continuous
 62
     7
370
    25
100
AcDbLine
 10
237.1041543759
 20
42.7483712008
 30
0.0
 11
256.5495908586
 21
41.0096561558
 31
0.0
  0
LINE
  5
120
330
1F
100
AcDbEntity
  8
0
  6
Continuous
 62
     7
370
    25
100
AcDbLine
 10
256.5495908586
 20
41.0096561558
 30
0.0
 11
256.5495908586
 21
15.0810029907
 31
0.0
  0
LINE
  5
121
330
1F
100
AcDbEntity
  8
0
  6
Continuous
 62
     7
370
    25
100
AcDbLine
 10
256.5495908586
 20
41.0096561558
 30
0.0
 11
267.8632993576
 21
34.4783912612
 31
0.0
  0
LINE
  5
122
330
1F
100
AcDbEntity
  8
0
  6
Continuous
 62
     7
370
    25
100
AcDbLine
 10
267.8632993576
 20
8.5497380962
 30
0.0
 11
267.8632993576
 21
34.4783912612
 31
0.0
  0
LINE
  5
123
330
1F
100
AcDbEntity
  8
0
  6
Continuous
 62
     7
370
    25
100
AcDbLine
 10
217.6587178933
 20
-7.3702200844
 30
0.0
 11
228.9724263923
 21
-13.901484979
 31
0.0
  0
LINE
  5
124
330
1F
100
AcDbEntity
  8
0
  6
Continuous
 62
     7
370
    25
100
AcDbLine
 10
228.9724263923
 20
-13.901484979
 30
0.0
 11
248.4178628749
 21
-15.6402000239
 31
0.0
  0
LWPOLYLINE
  5
125
330
1F
100
AcDbEntity
  8
0
  6
Continuous
 62
     7
370
    25
100
AcDbPolyline
 90
       40
 70
   128
 43
0.0
 10
267.8632993576
 20
17.9018045994
 10
268.1303017441
 20
17.5846016561
 10
268.539951079
 20
17.0017441309
 10
268.8991079765
 20
16.3587356647
 10
269.2060226602
 20
15.6587089304
 10
269.4591998726
 20
14.9050743876
 10
269.6574061599
 20
14.1015036683
 10
269.7996758809
 20
13.2519116881
 10
269.8853159118
 20
12.3604375738
 10
269.913909023
 20
11.4314244977
 10
269.8853159118
 20
10.469398518
 10
269.7996758809
 20
9.4790465287
 10
269.6574061599
 20
8.4651934251
 10
269.4591998726
 20
7.4327785975
 10
269.2060226602
 20
6.3868318674
 10
268.8991079765
 20
5.3324489819
 10
268.539951079
 20
4.2747667885
 10
268.1303017441
 20
3.2189382086
 10
267.6721557421
 20
2.1701071329
 10
267.1677451143
 20
1.1333833609
 10
266.6195272985
 20
0.1138177066
 10
266.030173157
 20
-0.8836226086
 10
265.4025539637
 20
-1.8540781556
 10
264.7397274163
 20
-2.7928209728
 10
264.0449227392
 20
-3.6952775993
 10
263.3215249508
 20
-4.5570513573
 10
262.5730583725
 20
-5.3739437715
 10
261.8031694582
 20
-6.1419750244
 10
261.0156090294
 20
-6.8574033448
 10
260.2142140012
 20
-7.5167432378
 10
259.4028886897
 20
-8.1167824659
 10
258.5855857902
 20
-8.6545976981
 10
257.7662871204
 20
-9.1275687527
 10
256.9489842209
 20
-9.5333913623
 10
256.1376589094
 20
-9.8700884
 10
255.3362638812
 20
-10.1360195115
 10
254.5487034524
 20
-10.3298891073
 10
253.7788145381
 20
-10.4507526742
 10
253.0303479598
 20
-10.498021377
 10
252.5585424898
 20
-10.4892339477
  0
LWPOLYLINE
  5
126
330
1F
100
AcDbEntity
  8
0
  6
Continuous
 62
     7
370
    25
100
AcDbPolyline
 90
       46
 70
   128
 43
0.0
 10
267.8632993576
 20
18.2302563309
 10
268.0337408609
 20
18.1290110001
 10
268.5819586766
 20
17.7424041629
 10
269.0863693045
 20
17.2880605055
 10
269.5445153065
 20
16.7681935443
 10
269.9541646414
 20
16.185336019
 10
270.3133215388
 20
15.5423275529
 10
270.6202362225
 20
14.8423008185
 10
270.873413435
 20
14.0886662758
 10
271.0716197223
 20
13.2850955565
 10
271.2138894432
 20
12.4355035763
 10
271.2995294741
 20
11.544029462
 10
271.3281225854
 20
10.6150163859
 10
271.2995294741
 20
9.6529904062
 10
271.2138894432
 20
8.6626384169
 10
271.0716197223
 20
7.6487853132
 10
270.873413435
 20
6.6163704857
 10
270.6202362225
 20
5.5704237555
 10
270.3133215388
 20
4.5160408701
 10
269.9541646414
 20
3.4583586767
 10
269.5445153064
 20
2.4025300968
 10
269.0863693045
 20
1.353699021
 10
268.5819586766
 20
0.316975249
 10
268.0337408609
 20
-0.7025904052
 10
267.4443867193
 20
-1.7000307204
 10
266.816767526
 20
-2.6704862675
 10
266.1539409787
 20
-3.6092290846
 10
265.4591363015
 20
-4.5116857111
 10
264.7357385132
 20
-5.3734594691
 10
263.9872719349
 20
-6.1903518834
 10
263.2173830206
 20
-6.9583831362
 10
262.4298225918
 20
-7.6738114566
 10
261.6284275636
 20
-8.3331513497
 10
260.8171022521
 20
-8.9331905777
 10
259.9997993526
 20
-9.4710058099
 10
259.1805006828
 20
-9.9439768645
 10
258.3631977833
 20
-10.3497994741
 10
257.5518724718
 20
-10.6864965118
 10
256.7504774436
 20
-10.9524276233
 10
255.9629170148
 20
-11.1462972191
 10
255.1930281005
 20
-11.267160786
 10
254.4445615222
 20
-11.3144294889
 10
253.7211637338
 20
-11.2878730392
 10
253.0263590567
 20
-11.1876208175
 10
252.3635325093
 20
-11.0141612425
 10
252.185633456
 20
-10.9531292406
  0
LWPOLYLINE
  5
127
330
1F
100
AcDbEntity
  8
0
  6
Continuous
 62
     7
370
    25
100
AcDbPolyline
 90
       49
 70
   128
 43
0.0
 10
268.5664143097
 20
17.7547779982
 10
268.8586002817
 20
17.6295893954
 10
269.4479544233
 20
17.3126028882
 10
269.996172239
 20
16.9259960511
 10
270.5005828668
 20
16.4716523936
 10
270.9587288688
 20
15.9517854325
 10
271.3683782037
 20
15.3689279072
 10
271.7275351012
 20
14.7259194411
 10
272.0344497849
 20
14.0258927067
 10
272.2876269974
 20
13.272258164
 10
272.4858332846
 20
12.4686874447
 10
272.6281030056
 20
11.6190954645
 10
272.7137430365
 20
10.7276213502
 10
272.7423361477
 20
9.798608274
 10
272.7137430365
 20
8.8365822944
 10
272.6281030056
 20
7.846230305
 10
272.4858332846
 20
6.8323772014
 10
272.2876269974
 20
5.7999623739
 10
272.0344497849
 20
4.7540156437
 10
271.7275351012
 20
3.6996327582
 10
271.3683782037
 20
2.6419505649
 10
270.9587288688
 20
1.586121985
 10
270.5005828668
 20
0.5372909092
 10
269.996172239
 20
-0.4994328628
 10
269.4479544233
 20
-1.5189985171
 10
268.8586002817
 20
-2.5164388322
 10
268.2309810884
 20
-3.4868943793
 10
267.568154541
 20
-4.4256371964
 10
266.8733498639
 20
-5.3280938229
 10
266.1499520755
 20
-6.1898675809
 10
265.4014854972
 20
-7.0067599952
 10
264.631596583
 20
-7.774791248
 10
263.8440361541
 20
-8.4902195684
 10
263.0426411259
 20
-9.1495594615
 10
262.2313158144
 20
-9.7495986895
 10
261.414012915
 20
-10.2874139217
 10
260.5947142451
 20
-10.7603849763
 10
259.7774113457
 20
-11.166207586
 10
258.9660860342
 20
-11.5029046236
 10
258.164691006
 20
-11.7688357352
 10
257.3771305771
 20
-11.962705331
 10
256.6072416629
 20
-12.0835688979
 10
255.8587750846
 20
-12.1308376007
 10
255.1353772962
 20
-12.1042811511
 10
254.4405726191
 20
-12.0040289294
 10
253.7777460717
 20
-11.8305693543
 10
253.1501268784
 20
-11.5847475036
 10
252.5607727368
 20
-11.2677609964
 10
252.1549793084
 20
-10.9912627088
  0
LWPOLYLINE
  5
128
330
1F
100
AcDbEntity
  8
0
  6
Continuous
 62
     7
370
    25
100
AcDbPolyline
 90
       49
 70
   128
 43
0.0
 10
269.9806278721
 20
16.9383698864
 10
270.2728138441
 20
16.8131812836
 10
270.8621679857
 20
16.4961947764
 10
271.4103858014
 20
16.1095879393
 10
271.9147964292
 20
15.6552442818
 10
272.3729424312
 20
15.1353773207
 10
272.7825917661
 20
14.5525197954
 10
273.1417486636
 20
13.9095113293
 10
273.4486633473
 20
13.2094845949
 10
273.7018405597
 20
12.4558500522
 10
273.900046847
 20
11.6522793328
 10
274.042316568
 20
10.8026873527
 10
274.1279565989
 20
9.9112132384
 10
274.1565497101
 20
8.9822001622
 10
274.1279565989
 20
8.0201741825
 10
274.042316568
 20
7.0298221932
 10
273.900046847
 20
6.0159690896
 10
273.7018405597
 20
4.9835542621
 10
273.4486633473
 20
3.9376075319
 10
273.1417486636
 20
2.8832246464
 10
272.7825917661
 20
1.825542453
 10
272.3729424312
 20
0.7697138731
 10
271.9147964292
 20
-0.2791172026
 10
271.4103858014
 20
-1.3158409746
 10
270.8621679857
 20
-2.3354066289
 10
270.2728138441
 20
-3.332846944
 10
269.6451946508
 20
-4.3033024911
 10
268.9823681034
 20
-5.2420453082
 10
268.2875634263
 20
-6.1445019348
 10
267.5641656379
 20
-7.0062756927
 10
266.8156990596
 20
-7.823168107
 10
266.0458101453
 20
-8.5911993599
 10
265.2582497165
 20
-9.3066276803
 10
264.4568546883
 20
-9.9659675733
 10
263.6455293768
 20
-10.5660068013
 10
262.8282264773
 20
-11.1038220335
 10
262.0089278075
 20
-11.5767930882
 10
261.191624908
 20
-11.9826156978
 10
260.3802995965
 20
-12.3193127354
 10
259.5789045684
 20
-12.585243847
 10
258.7913441395
 20
-12.7791134428
 10
258.0214552252
 20
-12.8999770097
 10
257.2729886469
 20
-12.9472457125
 10
256.5495908586
 20
-12.9206892629
 10
255.8547861814
 20
-12.8204370412
 10
255.1919596341
 20
-12.6469774661
 10
254.5643404408
 20
-12.4011556154
 10
253.9749862992
 20
-12.0841691082
 10
253.4423128504
 20
-11.7099361064
  0
LWPOLYLINE
  5
129
330
1F
100
AcDbEntity
  8
0
  6
Continuous
 62
     7
370
    25
100
AcDbPolyline
 90
       47
 70
   128
 43
0.0
 10
270.8593239795
 20
16.5007831384
 10
271.0035893419
 20
16.4145539652
 10
271.5518071576
 20
16.0279471281
 10
272.0562177854
 20
15.5736034706
 10
272.5143637874
 20
15.0537365095
 10
272.9240131224
 20
14.4708789842
 10
273.2831700198
 20
13.8278705181
 10
273.5900847035
 20
13.1278437837
 10
273.843261916
 20
12.374209241
 10
274.0414682032
 20
11.5706385217
 10
274.1837379242
 20
10.7210465415
 10
274.2693779551
 20
9.8295724272
 10
274.2979710664
 20
8.900559351
 10
274.2693779551
 20
7.9385333714
 10
274.1837379242
 20
6.948181382
 10
274.0414682032
 20
5.9343282784
 10
273.843261916
 20
4.9019134509
 10
273.5900847035
 20
3.8559667207
 10
273.2831700198
 20
2.8015838352
 10
272.9240131224
 20
1.7439016419
 10
272.5143637874
 20
0.688073062
 10
272.0562177854
 20
-0.3607580138
 10
271.5518071576
 20
-1.3974817858
 10
271.0035893419
 20
-2.4170474401
 10
270.4142352003
 20
-3.4144877552
 10
269.786616007
 20
-4.3849433023
 10
269.1237894597
 20
-5.3236861194
 10
268.4289847825
 20
-6.2261427459
 10
267.7055869941
 20
-7.0879165039
 10
266.9571204159
 20
-7.9048089182
 10
266.1872315016
 20
-8.6728401711
 10
265.3996710727
 20
-9.3882684914
 10
264.5982760445
 20
-10.0476083845
 10
263.786950733
 20
-10.6476476125
 10
262.9696478336
 20
-11.1854628447
 10
262.1503491637
 20
-11.6584338993
 10
261.3330462643
 20
-12.064256509
 10
260.5217209528
 20
-12.4009535466
 10
259.7203259246
 20
-12.6668846582
 10
258.9327654957
 20
-12.860754254
 10
258.1628765815
 20
-12.9816178209
 10
257.4144100032
 20
-13.0288865237
 10
256.6910122148
 20
-13.0023300741
 10
255.9962075377
 20
-12.9020778524
 10
255.3333809903
 20
-12.7286182773
 10
254.705761797
 20
-12.4827964266
 10
254.2606730178
 20
-12.2520390926
  0
LINE
  5
12A
330
1F
100
AcDbEntity
  8
0
  6
Continuous
 62
     7
370
    25
100
AcDbLine
 10
119.8323425481
 20
13.6884956327
 30
0.0
 11
119.8323425481
 21
-30.3115043673
 31
0.0
  0
LINE
  5
12B
330
1F
100
AcDbEntity
  8
0
  6
Continuous
 62
     7
370
    25
100
AcDbLine
 10
159.8323425481
 20
-30.3115043673
 30
0.0
 11
159.8323425481
 21
13.6884956327
 31
0.0
  0
LINE
  5
12C
330
1F
100
AcDbEntity
  8
0
  6
Continuous
 62
     7
370
    25
100
AcDbLine
 10
123.2323425481
 20
49.6884956327
 30
0.0
 11
123.2323425481
 21
49.4884956327
 31
0.0
  0
LINE
  5
12D
330
1F
100
AcDbEntity
  8
0
  6
Continuous
 62
     7
370
    25
100
AcDbLine
 10
156.4323425481
 20
49.4884956327
 30
0.0
 11
156.4323425481
 21
49.6884956327
 31
0.0
  0
LINE
  5
12E
330
1F
100
AcDbEntity
  8
0
  6
Continuous
 62
     7
370
    25
100
AcDbLine
 10
123.2323425481
 20
49.4884956327
 30
0.0
 11
124.9643933556
 21
48.4884956327
 31
0.0
  0
LINE
  5
12F
330
1F
100
AcDbEntity
  8
0
  6
Continuous
 62
     7
370
    25
100
AcDbLine
 10
154.7002917405
 20
48.4884956327
 30
0.0
 11
156.4323425481
 21
49.4884956327
 31
0.0
  0
LINE
  5
130
330
1F
100
AcDbEntity
  8
0
  6
Continuous
 62
     7
370
    25
100
AcDbLine
 10
156.4323425481
 20
47.4884956327
 30
0.0
 11
154.7002917405
 21
48.4884956327
 31
0.0
  0
LINE
  5
131
330
1F
100
AcDbEntity
  8
0
  6
Continuous
 62
     7
370
    25
100
AcDbLine
 10
124.9643933556
 20
48.4884956327
 30
0.0
 11
123.2323425481
 21
47.4884956327
 31
0.0
  0
LINE
  5
132
330
1F
100
AcDbEntity
  8
0
  6
Continuous
 62
     7
370
    25
100
AcDbLine
 10
123.2323425481
 20
47.4884956327
 30
0.0
 11
124.9643933556
 21
46.4884956327
 31
0.0
  0
LINE
  5
133
330
1F
100
AcDbEntity
  8
0
  6
Continuous
 62
     7
370
    25
100
AcDbLine
 10
154.7002917405
 20
46.4884956327
 30
0.0
 11
156.4323425481
 21
47.4884956327
 31
0.0
  0
LINE
  5
134
330
1F
100
AcDbEntity
  8
0
  6
Continuous
 62
     7
370
    25
100
AcDbLine
 10
156.4323425481
 20
45.4884956327
 30
0.0
 11
154.7002917405
 21
46.4884956327
 31
0.0
  0
LINE
  5
135
330
1F
100
AcDbEntity
  8
0
  6
Continuous
 62
     7
370
    25
100
AcDbLine
 10
124.9643933556
 20
46.4884956327
 30
0.0
 11
123.2323425481
 21
45.4884956327
 31
0.0
  0
LINE
  5
136
330
1F
100
AcDbEntity
  8
0
  6
Continuous
 62
     7
370
    25
100
AcDbLine
 10
123.2323425481
 20
45.4884956327
 30
0.0
 11
124.9643933556
 21
44.4884956327
 31
0.0
  0
LINE
  5
137
330
1F
100
AcDbEntity
  8
0
  6
Continuous
 62
     7
370
    25
100
AcDbLine
 10
154.7002917405
 20
44.4884956327
 30
0.0
 11
156.4323425481
 21
45.4884956327
 31
0.0
  0
LINE
  5
138
330
1F
100
AcDbEntity
  8
0
  6
Continuous
 62
     7
370
    25
100
AcDbLine
 10
156.4323425481
 20
43.4884956327
 30
0.0
 11
154.7002917405
 21
44.4884956327
 31
0.0
  0
LINE
  5
139
330
1F
100
AcDbEntity
  8
0
  6
Continuous
 62
     7
370
    25
100
AcDbLine
 10
124.9643933556
 20
44.4884956327
 30
0.0
 11
123.2323425481
 21
43.4884956327
 31
0.0
  0
LINE
  5
13A
330
1F
100
AcDbEntity
  8
0
  6
Continuous
 62
     7
370
    25
100
AcDbLine
 10
123.2323425481
 20
43.4884956327
 30
0.0
 11
123.2323425481
 21
29.6884956327
 31
0.0
  0
LINE
  5
13B
330
1F
100
AcDbEntity
  8
0
  6
Continuous
 62
     7
370
    25
100
AcDbLine
 10
156.4323425481
 20
29.6884956327
 30
0.0
 11
156.4323425481
 21
43.4884956327
 31
0.0
  0
LINE
  5
13C
330
1F
100
AcDbEntity
  8
0
  6
Continuous
 62
     7
370
    25
100
AcDbLine
 10
139.8323425481
 20
13.6884956327
 30
0.0
 11
139.8323425481
 21
29.6884956327
 31
0.0
  0
LINE
  5
13D
330
1F
100
AcDbEntity
  8
0
  6
Continuous
 62
     7
370
    25
100
AcDbLine
 10
112.3323425481
 20
13.6884956327
 30
0.0
 11
139.8323425481
 21
13.6884956327
 31
0.0
  0
LINE
  5
13E
330
1F
100
AcDbEntity
  8
0
  6
Continuous
 62
     7
370
    25
100
AcDbLine
 10
112.3323425481
 20
13.6884956327
 30
0.0
 11
112.3323425481
 21
29.6884956327
 31
0.0
  0
LINE
  5
13F
330
1F
100
AcDbEntity
  8
0
  6
Continuous
 62
     7
370
    25
100
AcDbLine
 10
139.8323425481
 20
29.6884956327
 30
0.0
 11
112.3323425481
 21
29.6884956327
 31
0.0
  0
LINE
  5
140
330
1F
100
AcDbEntity
  8
0
  6
Continuous
 62
     7
370
    25
100
AcDbLine
 10
167.3323425481
 20
13.6884956327
 30
0.0
 11
167.3323425481
 21
29.6884956327
 31
0.0
  0
LINE
  5
141
330
1F
100
AcDbEntity
  8
0
  6
Continuous
 62
     7
370
    25
100
AcDbLine
 10
139.8323425481
 20
13.6884956327
 30
0.0
 11
167.3323425481
 21
13.6884956327
 31
0.0
  0
LINE
  5
142
330
1F
100
AcDbEntity
  8
0
  6
Continuous
 62
     7
370
    25
100
AcDbLine
 10
167.3323425481
 20
29.6884956327
 30
0.0
 11
139.8323425481
 21
29.6884956327
 31
0.0
  0
LINE
  5
143
330
1F
100
AcDbEntity
  8
0
  6
Continuous
 62
     7
370
    25
100
AcDbLine
 10
119.8323425481
 20
-30.3115043673
 30
0.0
 11
159.8323425481
 21
-30.3115043673
 31
0.0
  0
LINE
  5
144
330
1F
100
AcDbEntity
  8
0
  6
Continuous
 62
     7
370
    25
100
AcDbLine
 10
123.2323425481
 20
49.4884956327
 30
0.0
 11
156.4323425481
 21
49.4884956327
 31
0.0
  0
LINE
  5
145
330
1F
100
AcDbEntity
  8
0
  6
Continuous
 62
     7
370
    25
100
AcDbLine
 10
123.2323425481
 20
49.6884956327
 30
0.0
 11
156.4323425481
 21
49.6884956327
 31
0.0
  0
LINE
  5
146
330
1F
100
AcDbEntity
  8
0
  6
Continuous
 62
     7
370
    25
100
AcDbLine
 10
124.9643933556
 20
48.4884956327
 30
0.0
 11
154.7002917405
 21
48.4884956327
 31
0.0
  0
LINE
  5
147
330
1F
100
AcDbEntity
  8
0
  6
Continuous
 62
     7
370
    25
100
AcDbLine
 10
123.2323425481
 20
47.4884956327
 30
0.0
 11
156.4323425481
 21
47.4884956327
 31
0.0
  0
LINE
  5
148
330
1F
100
AcDbEntity
  8
0
  6
Continuous
 62
     7
370
    25
100
AcDbLine
 10
124.9643933556
 20
46.4884956327
 30
0.0
 11
154.7002917405
 21
46.4884956327
 31
0.0
  0
LINE
  5
149
330
1F
100
AcDbEntity
  8
0
  6
Continuous
 62
     7
370
    25
100
AcDbLine
 10
123.2323425481
 20
45.4884956327
 30
0.0
 11
156.4323425481
 21
45.4884956327
 31
0.0
  0
LINE
  5
14A
330
1F
100
AcDbEntity
  8
0
  6
Continuous
 62
     7
370
    25
100
AcDbLine
 10
124.9643933556
 20
44.4884956327
 30
0.0
 11
154.7002917405
 21
44.4884956327
 31
0.0
  0
LINE
  5
14B
330
1F
100
AcDbEntity
  8
0
  6
Continuous
 62
     7
370
    25
100
AcDbLine
 10
123.2323425481
 20
43.4884956327
 30
0.0
 11
156.4323425481
 21
43.4884956327
 31
0.0
  0
ENDSEC
  0
SECTION
  2
OBJECTS
  0
DICTIONARY
  5
C
330
0
100
AcDbDictionary
281
     1
  3
ACAD_GROUP
350
D
  3
ACAD_LAYOUT
350
1A
  3
ACAD_MLINESTYLE
350
17
  3
ACAD_PLOTSETTINGS
350
19
  3
ACAD_PLOTSTYLENAME
350
E
  3
ACAD_SCALELIST
350
47
  3
DWGPROPS
350
14C
  0
DICTIONARY
  5
D
102
{ACAD_REACTORS
330
C
102
}
330
C
100
AcDbDictionary
281
     1
  0
DICTIONARY
  5
1A
102
{ACAD_REACTORS
330
C
102
}
330
C
100
AcDbDictionary
281
     1
  3
Layout1
350
1E
  3
Layout2
350
26
  3
Model
350
22
  0
DICTIONARY
  5
17
102
{ACAD_REACTORS
330
C
102
}
330
C
100
AcDbDictionary
281
     1
  3
Standard
350
18
  0
DICTIONARY
  5
19
102
{ACAD_REACTORS
330
C
102
}
330
C
100
AcDbDictionary
281
     1
  0
ACDBDICTIONARYWDFLT
  5
E
102
{ACAD_REACTORS
330
C
102
}
330
C
100
AcDbDictionary
281
     1
  3
Normal
350
F
100
AcDbDictionaryWithDefault
340
F
  0
DICTIONARY
  5
47
102
{ACAD_REACTORS
330
C
102
}
330
C
100
AcDbDictionary
281
     1
  3
A0
350
48
  3
A1
350
49
  3
A2
350
4A
  3
A3
350
4B
  3
A4
350
4C
  3
A5
350
4D
  3
A6
350
4E
  3
A7
350
4F
  3
A8
350
50
  3
A9
350
51
  3
B0
350
52
  3
B1
350
53
  3
B2
350
54
  3
B3
350
55
  3
B4
350
56
  3
B5
350
57
  3
B6
350
58
  3
B7
350
59
  3
B8
350
5A
  3
B9
350
5B
  3
C0
350
5C
  3
C1
350
5D
  3
C2
350
5E
  3
C3
350
5F
  3
C4
350
60
  3
C5
350
61
  3
C6
350
62
  3
C7
350
63
  3
C8
350
64
  3
C9
350
65
  3
D0
350
66
  3
D1
350
67
  3
D2
350
68
  0
XRECORD
  5
14C
102
{ACAD_REACTORS
330
C
102
}
330
C
100
AcDbXrecord
280
     1
  1
DWGPROPS COOKIE
  2

  3

  4

  6

  7

  8
b.kav
  9

300
=
301
=
302
=
303
=
304
=
305
=
306
=
307
=
308
=
309
=
 40
0.0
 41
2459935.584185741
 42
2459935.584185926
  1

 90
        0
  0
LAYOUT
  5
1E
102
{ACAD_REACTORS
330
1A
102
}
330
1A
100
AcDbPlotSettings
  1

  2
none_device
  4

  6

 40
0.0
 41
0.0
 42
0.0
 43
0.0
 44
0.0
 45
0.0
 46
0.0
 47
0.0
 48
0.0
 49
0.0
140
0.0
141
0.0
142
1.0
143
1.0
 70
   688
 72
     1
 73
     0
 74
     5
  7

 75
    16
147
1.0
148
0.0
149
0.0
100
AcDbLayout
  1
Layout1
 70
     1
 71
     1
 10
0.0
 20
0.0
 11
420.0
 21
297.0
 12
0.0
 22
0.0
 32
0.0
 14
1.0000000000E+20
 24
1.0000000000E+20
 34
1.0000000000E+20
 15
-1.0000000000E+20
 25
-1.0000000000E+20
 35
-1.0000000000E+20
146
0.0
 13
0.0
 23
0.0
 33
0.0
 16
1.0
 26
0.0
 36
0.0
 17
0.0
 27
1.0
 37
0.0
 76
     0
330
1B
  0
LAYOUT
  5
26
102
{ACAD_REACTORS
330
1A
102
}
330
1A
100
AcDbPlotSettings
  1

  2
none_device
  4

  6

 40
0.0
 41
0.0
 42
0.0
 43
0.0
 44
0.0
 45
0.0
 46
0.0
 47
0.0
 48
0.0
 49
0.0
140
0.0
141
0.0
142
1.0
143
1.0
 70
   688
 72
     1
 73
     0
 74
     5
  7

 75
    16
147
1.0
148
0.0
149
0.0
100
AcDbLayout
  1
Layout2
 70
     1
 71
     2
 10
0.0
 20
0.0
 11
0.0
 21
0.0
 12
0.0
 22
0.0
 32
0.0
 14
0.0
 24
0.0
 34
0.0
 15
0.0
 25
0.0
 35
0.0
146
0.0
 13
0.0
 23
0.0
 33
0.0
 16
1.0
 26
0.0
 36
0.0
 17
0.0
 27
1.0
 37
0.0
 76
     0
330
23
  0
LAYOUT
  5
22
102
{ACAD_REACTORS
330
1A
102
}
330
1A
100
AcDbPlotSettings
  1

  2
none_device
  4
Letter_(8.50_x_11.00_Inches)
  6

 40
6.35
 41
6.35
 42
6.35000508
 43
6.35000508
 44
215.9
 45
279.4
 46
0.0
 47
0.0
 48
0.0
 49
0.0
140
0.0
141
0.0
142
1.0
143
1.0
 70
  1712
 72
     1
 73
     0
 74
     0
  7

 75
     0
147
1.0
148
0.0
149
0.0
100
AcDbLayout
  1
Model
 70
     1
 71
     0
 10
0.0
 20
0.0
 11
279.4
 21
215.9
 12
0.0
 22
0.0
 32
0.0
 14
0.0
 24
0.0
 34
0.0
 15
279.4
 25
215.9
 35
0.0
146
0.0
 13
0.0
 23
0.0
 33
0.0
 16
1.0
 26
0.0
 36
0.0
 17
0.0
 27
1.0
 37
0.0
 76
     0
330
1F
331
29
  0
MLINESTYLE
  5
18
102
{ACAD_REACTORS
330
17
102
}
330
17
100
AcDbMlineStyle
  2
Standard
 70
     0
  3

 62
   256
 51
90.0
 52
90.0
 71
     2
 49
0.5
 62
   256
  6
BYLAYER
 49
-0.5
 62
   256
  6
BYLAYER
  0
ACDBPLACEHOLDER
  5
F
102
{ACAD_REACTORS
330
E
102
}
330
E
  0
SCALE
  5
48
102
{ACAD_REACTORS
330
47
102
}
330
47
100
AcDbScale
 70
     0
300
1:1
140
1.0
141
1.0
290
     1
  0
SCALE
  5
49
102
{ACAD_REACTORS
330
47
102
}
330
47
100
AcDbScale
 70
     0
300
1:2
140
1.0
141
2.0
290
     0
  0
SCALE
  5
4A
102
{ACAD_REACTORS
330
47
102
}
330
47
100
AcDbScale
 70
     0
300
1:4
140
1.0
141
4.0
290
     0
  0
SCALE
  5
4B
102
{ACAD_REACTORS
330
47
102
}
330
47
100
AcDbScale
 70
     0
300
1:5
140
1.0
141
5.0
290
     0
  0
SCALE
  5
4C
102
{ACAD_REACTORS
330
47
102
}
330
47
100
AcDbScale
 70
     0
300
1:8
140
1.0
141
8.0
290
     0
  0
SCALE
  5
4D
102
{ACAD_REACTORS
330
47
102
}
330
47
100
AcDbScale
 70
     0
300
1:10
140
1.0
141
10.0
290
     0
  0
SCALE
  5
4E
102
{ACAD_REACTORS
330
47
102
}
330
47
100
AcDbScale
 70
     0
300
1:16
140
1.0
141
16.0
290
     0
  0
SCALE
  5
4F
102
{ACAD_REACTORS
330
47
102
}
330
47
100
AcDbScale
 70
     0
300
1:20
140
1.0
141
20.0
290
     0
  0
SCALE
  5
50
102
{ACAD_REACTORS
330
47
102
}
330
47
100
AcDbScale
 70
     0
300
1:30
140
1.0
141
30.0
290
     0
  0
SCALE
  5
51
102
{ACAD_REACTORS
330
47
102
}
330
47
100
AcDbScale
 70
     0
300
1:40
140
1.0
141
40.0
290
     0
  0
SCALE
  5
52
102
{ACAD_REACTORS
330
47
102
}
330
47
100
AcDbScale
 70
     0
300
1:50
140
1.0
141
50.0
290
     0
  0
SCALE
  5
53
102
{ACAD_REACTORS
330
47
102
}
330
47
100
AcDbScale
 70
     0
300
1:100
140
1.0
141
100.0
290
     0
  0
SCALE
  5
54
102
{ACAD_REACTORS
330
47
102
}
330
47
100
AcDbScale
 70
     0
300
2:1
140
2.0
141
1.0
290
     0
  0
SCALE
  5
55
102
{ACAD_REACTORS
330
47
102
}
330
47
100
AcDbScale
 70
     0
300
4:1
140
4.0
141
1.0
290
     0
  0
SCALE
  5
56
102
{ACAD_REACTORS
330
47
102
}
330
47
100
AcDbScale
 70
     0
300
8:1
140
8.0
141
1.0
290
     0
  0
SCALE
  5
57
102
{ACAD_REACTORS
330
47
102
}
330
47
100
AcDbScale
 70
     0
300
10:1
140
10.0
141
1.0
290
     0
  0
SCALE
  5
58
102
{ACAD_REACTORS
330
47
102
}
330
47
100
AcDbScale
 70
     0
300
100:1
140
100.0
141
1.0
290
     0
  0
SCALE
  5
59
102
{ACAD_REACTORS
330
47
102
}
330
47
100
AcDbScale
 70
     0
300
1/128" = 1'-0"
140
0.0078125
141
12.0
290
     0
  0
SCALE
  5
5A
102
{ACAD_REACTORS
330
47
102
}
330
47
100
AcDbScale
 70
     0
300
1/64" = 1'-0"
140
0.015625
141
12.0
290
     0
  0
SCALE
  5
5B
102
{ACAD_REACTORS
330
47
102
}
330
47
100
AcDbScale
 70
     0
300
1/32" = 1'-0"
140
0.03125
141
12.0
290
     0
  0
SCALE
  5
5C
102
{ACAD_REACTORS
330
47
102
}
330
47
100
AcDbScale
 70
     0
300
1/16" = 1'-0"
140
0.0625
141
12.0
290
     0
  0
SCALE
  5
5D
102
{ACAD_REACTORS
330
47
102
}
330
47
100
AcDbScale
 70
     0
300
3/32" = 1'-0"
140
0.09375
141
12.0
290
     0
  0
SCALE
  5
5E
102
{ACAD_REACTORS
330
47
102
}
330
47
100
AcDbScale
 70
     0
300
1/8" = 1'-0"
140
0.125
141
12.0
290
     0
  0
SCALE
  5
5F
102
{ACAD_REACTORS
330
47
102
}
330
47
100
AcDbScale
 70
     0
300
3/16" = 1'-0"
140
0.1875
141
12.0
290
     0
  0
SCALE
  5
60
102
{ACAD_REACTORS
330
47
102
}
330
47
100
AcDbScale
 70
     0
300
1/4" = 1'-0"
140
0.25
141
12.0
290
     0
  0
SCALE
  5
61
102
{ACAD_REACTORS
330
47
102
}
330
47
100
AcDbScale
 70
     0
300
3/8" = 1'-0"
140
0.375
141
12.0
290
     0
  0
SCALE
  5
62
102
{ACAD_REACTORS
330
47
102
}
330
47
100
AcDbScale
 70
     0
300
1/2" = 1'-0"
140
0.5
141
12.0
290
     0
  0
SCALE
  5
63
102
{ACAD_REACTORS
330
47
102
}
330
47
100
AcDbScale
 70
     0
300
3/4" = 1'-0"
140
0.75
141
12.0
290
     0
  0
SCALE
  5
64
102
{ACAD_REACTORS
330
47
102
}
330
47
100
AcDbScale
 70
     0
300
1" = 1'-0"
140
1.0
141
12.0
290
     0
  0
SCALE
  5
65
102
{ACAD_REACTORS
330
47
102
}
330
47
100
AcDbScale
 70
     0
300
1-1/2" = 1'-0"
140
1.5
141
12.0
290
     0
  0
SCALE
  5
66
102
{ACAD_REACTORS
330
47
102
}
330
47
100
AcDbScale
 70
     0
300
3" = 1'-0"
140
3.0
141
12.0
290
     0
  0
SCALE
  5
67
102
{ACAD_REACTORS
330
47
102
}
330
47
100
AcDbScale
 70
     0
300
6" = 1'-0"
140
6.0
141
12.0
290
     0
  0
SCALE
  5
68
102
{ACAD_REACTORS
330
47
102
}
330
47
100
AcDbScale
 70
     0
300
1'-0" = 1'-0"
140
12.0
141
12.0
290
     0
  0
ENDSEC
  0
EOF
